999
dxflib 3.3.4.0
  0
SECTION
  2
HEADER
  9
$ACADVER
  1
AC1015
  9
$HANDSEED
  5
FFFF
  9
$AUNITS
 70
0
  9
$AUPREC
 70
2
  9
$DIMADEC
 70
2
  9
$DIMASZ
 40
2.5
  9
$DIMAUNIT
 70
0
  9
$DIMAZIN
 70
0
  9
$DIMDEC
 70
4
  9
$DIMEXE
 40
1.25
  9
$DIMEXO
 40
0.625
  9
$DIMGAP
 40
0.625
  9
$DIMLUNIT
 70
2
  9
$DIMSCALE
 40
1.0
  9
$DIMTSZ
 40
0.0
  9
$DIMTXT
 40
2.5
  9
$DIMZIN
 70
0
  9
$DWGCODEPAGE
  3
ANSI_1252
  9
$INSUNITS
 70
4
  9
$LTSCALE
 40
1.0
  9
$LUNITS
 70
2
  9
$LUPREC
 70
4
  9
$PINSBASE
 10
0.0000000000000117
 20
-5.9999999999999973
 30
0.0
  9
$PLIMMAX
 10
420.0
 20
297.0
  9
$PLIMMIN
 10
0.0
 20
0.0
  9
$SPLINESEGS
 70
8
  0
ENDSEC
  0
SECTION
  2
TABLES
  0
TABLE
  2
VPORT
  5
8
100
AcDbSymbolTable
 70
1
  0
VPORT
  5
30
100
AcDbSymbolTableRecord
100
AcDbViewportTableRecord
  2
*Active
 70
0
 10
0.0
 20
0.0
 11
1.0
 21
1.0
 12
286.30555555555549
 22
148.5
 13
0.0
 23
0.0
 14
10.0
 24
10.0
 15
10.0
 25
10.0
 16
0.0
 26
0.0
 36
1.0
 17
0.0
 27
0.0
 37
0.0
 40
297.0
 41
1.92798353909465
 42
50.0
 43
0.0
 44
0.0
 50
0.0
 51
0.0
 71
0
 72
100
 73
1
 74
3
 75
1
 76
1
 77
0
 78
0
281
0
 65
1
110
0.0
120
0.0
130
0.0
111
1.0
121
0.0
131
0.0
112
0.0
122
1.0
132
0.0
 79
0
146
0.0
  0
ENDTAB
  0
TABLE
  2
LTYPE
  5
5
100
AcDbSymbolTable
 70
21
  0
LTYPE
  5
16
100
AcDbSymbolTableRecord
100
AcDbLinetypeTableRecord
  2
CONTINUOUS
 70
0
  3
Solid line
 72
65
 73
0
 40
0.0
  0
LTYPE
  5
31
100
AcDbSymbolTableRecord
100
AcDbLinetypeTableRecord
  2
CENTER2
 70
0
  3
Center (.5x) ___ _ ___ _ ___ _ ___ _ ___ _ ___
 72
65
 73
4
 40
28.574999999999999
 49
19.050000000000001
 74
0
 49
-3.1749999999999998
 74
0
 49
3.1749999999999998
 74
0
 49
-3.1749999999999998
 74
0
  0
LTYPE
  5
32
100
AcDbSymbolTableRecord
100
AcDbLinetypeTableRecord
  2
DIVIDEX2
 70
0
  3
Divide (2x) ________  .  .  ________  .  .  _
 72
65
 73
6
 40
63.5
 49
25.399999999999999
 74
0
 49
-12.699999999999999
 74
0
 49
0.0
 74
0
 49
-12.699999999999999
 74
0
 49
0.0
 74
0
 49
-12.699999999999999
 74
0
  0
LTYPE
  5
33
100
AcDbSymbolTableRecord
100
AcDbLinetypeTableRecord
  2
DOT2
 70
0
  3
Dot (.5x) .....................................
 72
65
 73
2
 40
3.1749999999999998
 49
0.0
 74
0
 49
-3.1749999999999998
 74
0
  0
LTYPE
  5
34
100
AcDbSymbolTableRecord
100
AcDbLinetypeTableRecord
  2
DASHDOT2
 70
0
  3
Dash dot (.5x) _._._._._._._._._._._._._._._.
 72
65
 73
4
 40
12.699999999999999
 49
6.3499999999999996
 74
0
 49
-3.1749999999999998
 74
0
 49
0.0
 74
0
 49
-3.1749999999999998
 74
0
  0
LTYPE
  5
35
100
AcDbSymbolTableRecord
100
AcDbLinetypeTableRecord
  2
DIVIDE
 70
0
  3
Divide ____ . . ____ . . ____ . . ____ . . ____
 72
65
 73
6
 40
31.75
 49
12.699999999999999
 74
0
 49
-6.3499999999999996
 74
0
 49
0.0
 74
0
 49
-6.3499999999999996
 74
0
 49
0.0
 74
0
 49
-6.3499999999999996
 74
0
  0
LTYPE
  5
36
100
AcDbSymbolTableRecord
100
AcDbLinetypeTableRecord
  2
DASHDOT
 70
0
  3
Dash dot __ . __ . __ . __ . __ . __ . __ . __
 72
65
 73
4
 40
25.399999999999999
 49
12.699999999999999
 74
0
 49
-6.3499999999999996
 74
0
 49
0.0
 74
0
 49
-6.3499999999999996
 74
0
  0
LTYPE
  5
37
100
AcDbSymbolTableRecord
100
AcDbLinetypeTableRecord
  2
BORDER
 70
0
  3
Border __ __ . __ __ . __ __ . __ __ . __ __ .
 72
65
 73
6
 40
44.450000000000003
 49
12.699999999999999
 74
0
 49
-6.3499999999999996
 74
0
 49
12.699999999999999
 74
0
 49
-6.3499999999999996
 74
0
 49
0.0
 74
0
 49
-6.3499999999999996
 74
0
  0
LTYPE
  5
38
100
AcDbSymbolTableRecord
100
AcDbLinetypeTableRecord
  2
DASHDOTX2
 70
0
  3
Dash dot (2x) ____  .  ____  .  ____  .  ___
 72
65
 73
4
 40
50.799999999999997
 49
25.399999999999999
 74
0
 49
-12.699999999999999
 74
0
 49
0.0
 74
0
 49
-12.699999999999999
 74
0
  0
LTYPE
  5
39
100
AcDbSymbolTableRecord
100
AcDbLinetypeTableRecord
  2
CENTERX2
 70
0
  3
Center (2x) ________  __  ________  __  _____
 72
65
 73
4
 40
101.59999999999999
 49
63.5
 74
0
 49
-12.699999999999999
 74
0
 49
12.699999999999999
 74
0
 49
-12.699999999999999
 74
0
  0
LTYPE
  5
3A
100
AcDbSymbolTableRecord
100
AcDbLinetypeTableRecord
  2
BORDER2
 70
0
  3
Border (.5x) __.__.__.__.__.__.__.__.__.__.__.
 72
65
 73
6
 40
22.225000000000001
 49
6.3499999999999996
 74
0
 49
-3.1749999999999998
 74
0
 49
6.3499999999999996
 74
0
 49
-3.1749999999999998
 74
0
 49
0.0
 74
0
 49
-3.1749999999999998
 74
0
  0
LTYPE
  5
3B
100
AcDbSymbolTableRecord
100
AcDbLinetypeTableRecord
  2
BORDERX2
 70
0
  3
Border (2x) ____  ____  .  ____  ____  .  ___
 72
65
 73
6
 40
88.900000000000006
 49
25.399999999999999
 74
0
 49
-12.699999999999999
 74
0
 49
25.399999999999999
 74
0
 49
-12.699999999999999
 74
0
 49
0.0
 74
0
 49
-12.699999999999999
 74
0
  0
LTYPE
  5
14
100
AcDbSymbolTableRecord
100
AcDbLinetypeTableRecord
  2
BYBLOCK
 70
0
  3

 72
65
 73
0
 40
0.0
  0
LTYPE
  5
15
100
AcDbSymbolTableRecord
100
AcDbLinetypeTableRecord
  2
BYLAYER
 70
0
  3

 72
65
 73
0
 40
0.0
  0
LTYPE
  5
3C
100
AcDbSymbolTableRecord
100
AcDbLinetypeTableRecord
  2
DASHED2
 70
0
  3
Dashed (.5x) _ _ _ _ _ _ _ _ _ _ _ _ _ _ _ _ _
 72
65
 73
2
 40
9.5250000000000004
 49
6.3499999999999996
 74
0
 49
-3.1749999999999998
 74
0
  0
LTYPE
  5
3D
100
AcDbSymbolTableRecord
100
AcDbLinetypeTableRecord
  2
CENTER
 70
0
  3
Center ____ _ ____ _ ____ _ ____ _ ____ _ ____
 72
65
 73
4
 40
50.799999999999997
 49
31.75
 74
0
 49
-6.3499999999999996
 74
0
 49
6.3499999999999996
 74
0
 49
-6.3499999999999996
 74
0
  0
LTYPE
  5
3E
100
AcDbSymbolTableRecord
100
AcDbLinetypeTableRecord
  2
DIVIDE2
 70
0
  3
Divide (.5x) __..__..__..__..__..__..__..__.._
 72
65
 73
6
 40
15.875
 49
6.3499999999999996
 74
0
 49
-3.1749999999999998
 74
0
 49
0.0
 74
0
 49
-3.1749999999999998
 74
0
 49
0.0
 74
0
 49
-3.1749999999999998
 74
0
  0
LTYPE
  5
3F
100
AcDbSymbolTableRecord
100
AcDbLinetypeTableRecord
  2
DASHED
 70
0
  3
Dashed __ __ __ __ __ __ __ __ __ __ __ __ __ _
 72
65
 73
2
 40
19.050000000000001
 49
12.699999999999999
 74
0
 49
-6.3499999999999996
 74
0
  0
LTYPE
  5
40
100
AcDbSymbolTableRecord
100
AcDbLinetypeTableRecord
  2
DOTX2
 70
0
  3
Dot (2x) .  .  .  .  .  .  .  .  .  .  .  .  .
 72
65
 73
2
 40
12.699999999999999
 49
0.0
 74
0
 49
-12.699999999999999
 74
0
  0
LTYPE
  5
41
100
AcDbSymbolTableRecord
100
AcDbLinetypeTableRecord
  2
DASHEDX2
 70
0
  3
Dashed (2x) ____  ____  ____  ____  ____  ___
 72
65
 73
2
 40
38.100000000000001
 49
25.399999999999999
 74
0
 49
-12.699999999999999
 74
0
  0
LTYPE
  5
42
100
AcDbSymbolTableRecord
100
AcDbLinetypeTableRecord
  2
DOT
 70
0
  3
Dot . . . . . . . . . . . . . . . . . . . . . .
 72
65
 73
2
 40
6.3499999999999996
 49
0.0
 74
0
 49
-6.3499999999999996
 74
0
  0
ENDTAB
  0
TABLE
  2
LAYER
  5
2
100
AcDbSymbolTable
 70
4
  0
LAYER
  5
43
100
AcDbSymbolTableRecord
100
AcDbLayerTableRecord
  2
3
 70
0
 62
2
420
16776960
  6
CONTINUOUS
370
0
390
F
  0
LAYER
  5
10
100
AcDbSymbolTableRecord
100
AcDbLayerTableRecord
  2
0
 70
0
 62
7
420
16777215
  6
CONTINUOUS
370
0
390
F
  0
LAYER
  5
44
100
AcDbSymbolTableRecord
100
AcDbLayerTableRecord
  2
1
 70
0
 62
4
420
65535
  6
CONTINUOUS
370
0
390
F
  0
LAYER
  5
45
100
AcDbSymbolTableRecord
100
AcDbLayerTableRecord
  2
2
 70
0
 62
3
420
65280
  6
CONTINUOUS
370
0
390
F
  0
ENDTAB
  0
TABLE
  2
STYLE
  5
3
100
AcDbSymbolTable
 70
2
  0
STYLE
  5
46
100
AcDbSymbolTableRecord
100
AcDbTextStyleTableRecord
  2
Standard
 70
0
 40
0.0
 41
1.0
 50
0.0
 71
0
 42
2.5
  3

  4

1001
ACAD
1000
txt
1071
0
  0
STYLE
  5
47
100
AcDbSymbolTableRecord
100
AcDbTextStyleTableRecord
  2
textstyle0
 70
0
 40
0.0
 41
1.0
 50
0.0
 71
0
 42
5.0
  3

  4

1001
ACAD
1000
textstyle0
1071
0
  0
ENDTAB
  0
TABLE
  2
VIEW
  5
6
100
AcDbSymbolTable
 70
0
  0
ENDTAB
  0
TABLE
  2
UCS
  5
7
100
AcDbSymbolTable
 70
0
  0
ENDTAB
  0
TABLE
  2
APPID
  5
9
100
AcDbSymbolTable
 70
1
  0
APPID
  5
12
100
AcDbSymbolTableRecord
100
AcDbRegAppTableRecord
  2
ACAD
 70
0
  0
APPID
  5
48
100
AcDbSymbolTableRecord
100
AcDbRegAppTableRecord
  2
QCAD
 70
0
  0
ENDTAB
  0
TABLE
  2
DIMSTYLE
  5
A
100
AcDbSymbolTable
 70
1
100
AcDbDimStyleTable
 71
0
  0
DIMSTYLE
105
27
100
AcDbSymbolTableRecord
100
AcDbDimStyleTableRecord
  2
Standard
 41
2.5
 42
0.625
 43
3.75
 44
1.25
 70
0
 73
0
 74
0
 77
1
 78
8
140
2.5
141
2.5
143
0.03937007874016
147
0.625
171
3
172
1
271
2
272
2
274
3
278
44
283
0
284
8
340
46
  0
ENDTAB
  0
TABLE
  2
BLOCK_RECORD
  5
1
100
AcDbSymbolTable
 70
1
  0
BLOCK_RECORD
  5
1F
100
AcDbSymbolTableRecord
100
AcDbBlockTableRecord
  2
*Model_Space
340
22
  0
BLOCK_RECORD
  5
1B
100
AcDbSymbolTableRecord
100
AcDbBlockTableRecord
  2
*Paper_Space
340
1E
  0
BLOCK_RECORD
  5
23
100
AcDbSymbolTableRecord
100
AcDbBlockTableRecord
  2
*Paper_Space0
340
26
  0
ENDTAB
  0
ENDSEC
  0
SECTION
  2
BLOCKS
  0
BLOCK
  5
20
100
AcDbEntity
  8
0
100
AcDbBlockBegin
  2
*Model_Space
 70
0
 10
0.0
 20
0.0
 30
0.0
  3
*Model_Space
  1

  0
ENDBLK
  5
21
100
AcDbEntity
  8
0
100
AcDbBlockEnd
  0
BLOCK
  5
1C
100
AcDbEntity
 67
1
  8
0
100
AcDbBlockBegin
  2
*Paper_Space
 70
0
 10
0.0
 20
0.0
 30
0.0
  3
*Paper_Space
  1

  0
ENDBLK
  5
1D
100
AcDbEntity
 67
1
  8
0
100
AcDbBlockEnd
  0
BLOCK
  5
24
100
AcDbEntity
  8
0
100
AcDbBlockBegin
  2
*Paper_Space0
 70
0
 10
0.0
 20
0.0
 30
0.0
  3
*Paper_Space0
  1

  0
ENDBLK
  5
25
100
AcDbEntity
  8
0
100
AcDbBlockEnd
  0
ENDSEC
  0
SECTION
  2
ENTITIES
  0
LINE
  5
49
100
AcDbEntity
100
AcDbLine
  8
0
 62
256
370
-1
  6
BYLAYER
 10
0.0000000000000111
 20
174.0
 30
0.0
 11
35.000000000000021
 21
174.0
 31
0.0
  0
LINE
  5
4A
100
AcDbEntity
100
AcDbLine
  8
0
 62
256
370
-1
  6
BYLAYER
 10
4.5000000000000009
 20
15.0
 30
0.0
 11
4.5000000000000115
 21
173.99999999999997
 31
0.0
  0
LINE
  5
4B
100
AcDbEntity
100
AcDbLine
  8
0
 62
256
370
-1
  6
BYLAYER
 10
110.2
 20
1.0
 30
0.0
 11
110.2
 21
177.5
 31
0.0
  0
LINE
  5
4C
100
AcDbEntity
100
AcDbLine
  8
2
 62
256
370
-1
  6
BYLAYER
 10
33.100000000000001
 20
0.9999999999999942
 30
0.0
 11
26.100000000000009
 21
0.9999999999999942
 31
0.0
  0
LINE
  5
4D
100
AcDbEntity
100
AcDbLine
  8
2
 62
256
370
-1
  6
BYLAYER
 10
33.100000000000001
 20
70.849999999999994
 30
0.0
 11
26.100000000000009
 21
70.849999999999994
 31
0.0
  0
LINE
  5
4E
100
AcDbEntity
100
AcDbLine
  8
2
 62
256
370
-1
  6
BYLAYER
 10
33.100000000000001
 20
70.849999999999994
 30
0.0
 11
33.100000000000001
 21
0.9999999999999942
 31
0.0
  0
MTEXT
  5
4F
100
AcDbEntity
100
AcDbMText
  8
0
 62
256
370
-1
  6
BYLAYER
 10
0.0
 20
230.0
 30
0.0
 40
5.0
 41
100.0
 71
1
 72
5
  1
Atom Chassis\P2015-03-15\PT. Nakagawa
  7
textstyle0
 50
0.0
 73
1
 44
1.0
  0
LINE
  5
50
100
AcDbEntity
100
AcDbLine
  8
0
 62
256
370
-1
  6
BYLAYER
 10
100.00000000000001
 20
200.0
 30
0.0
 11
115.00000000000001
 21
200.0
 31
0.0
  0
LINE
  5
51
100
AcDbEntity
100
AcDbLine
  8
0
 62
256
370
-1
  6
BYLAYER
 10
100.00000000000003
 20
234.99999999999997
 30
0.0
 11
100.00000000000001
 21
200.0
 31
0.0
  0
LINE
  5
52
100
AcDbEntity
100
AcDbLine
  8
0
 62
256
370
-1
  6
BYLAYER
 10
30.500000000000007
 20
14.999999999999993
 30
0.0
 11
30.500000000000021
 21
173.99999999999997
 31
0.0
  0
LINE
  5
53
100
AcDbEntity
100
AcDbLine
  8
0
 62
256
370
-1
  6
BYLAYER
 10
101.0
 20
1.0000000000000002
 30
0.0
 11
101.0
 21
177.5
 31
0.0
  0
LINE
  5
54
100
AcDbEntity
100
AcDbLine
  8
0
 62
256
370
-1
  6
BYLAYER
 10
115.0
 20
0.1000000000000014
 30
0.0
 11
265.29999999999995
 21
0.1000000000000014
 31
0.0
  0
LINE
  5
55
100
AcDbEntity
100
AcDbLine
  8
0
 62
256
370
-1
  6
BYLAYER
 10
114.99999999999999
 20
9.3000000000000007
 30
0.0
 11
265.30000000000001
 21
9.3000000000000007
 31
0.0
  0
LINE
  5
56
100
AcDbEntity
100
AcDbLine
  8
0
 62
256
370
-1
  6
BYLAYER
 10
101.0
 20
1.0
 30
0.0
 11
115.0
 21
1.0
 31
0.0
  0
LINE
  5
57
100
AcDbEntity
100
AcDbLine
  8
0
 62
256
370
-1
  6
BYLAYER
 10
0.0000000000000008
 20
15.000000000000004
 30
0.0
 11
35.000000000000007
 21
14.999999999999993
 31
0.0
  0
LINE
  5
58
100
AcDbEntity
100
AcDbLine
  8
2
 62
256
370
-1
  6
BYLAYER
 10
6.9999999999999991
 20
1.0000000000000018
 30
0.0
 11
7.0000000000000115
 21
170.99999999999994
 31
0.0
  0
LINE
  5
59
100
AcDbEntity
100
AcDbLine
  8
2
 62
256
370
-1
  6
BYLAYER
 10
8.5699999999999985
 20
1.0000000000000018
 30
0.0
 11
8.5700000000000127
 21
170.99999999999994
 31
0.0
  0
LINE
  5
5A
100
AcDbEntity
100
AcDbLine
  8
2
 62
256
370
-1
  6
BYLAYER
 10
6.9999999999999991
 20
1.0000000000000013
 30
0.0
 11
8.5699999999999985
 21
1.0000000000000009
 31
0.0
  0
LINE
  5
5B
100
AcDbEntity
100
AcDbLine
  8
2
 62
256
370
-1
  6
BYLAYER
 10
7.0000000000000115
 20
171.0
 30
0.0
 11
8.5700000000000127
 21
171.0
 31
0.0
  0
LINE
  5
5C
100
AcDbEntity
100
AcDbLine
  8
3
 62
256
370
-1
  6
BYLAYER
 10
7.0
 20
8.3500000000000014
 30
0.0
 11
328.0
 21
8.3499999999996373
 31
0.0
  0
LINE
  5
5D
100
AcDbEntity
100
AcDbLine
  8
3
 62
256
370
-1
  6
BYLAYER
 10
7.0000000000000115
 20
165.82999999999998
 30
0.0
 11
328.0
 21
165.82999999999998
 31
0.0
  0
LINE
  5
5E
100
AcDbEntity
100
AcDbLine
  8
2
 62
256
370
-1
  6
BYLAYER
 10
26.100000000000001
 20
70.849999999999994
 30
0.0
 11
26.100000000000001
 21
0.9999999999999942
 31
0.0
  0
LINE
  5
5F
100
AcDbEntity
100
AcDbLine
  8
2
 62
256
370
-1
  6
BYLAYER
 10
104.10000000000004
 20
172.00000000000003
 30
0.0
 11
274.10000000000002
 21
172.00000000000003
 31
0.0
  0
LINE
  5
60
100
AcDbEntity
100
AcDbLine
  8
2
 62
256
370
-1
  6
BYLAYER
 10
104.10000000000002
 20
1.9999999999999916
 30
0.0
 11
274.10000000000002
 21
1.9999999999999916
 31
0.0
  0
LINE
  5
61
100
AcDbEntity
100
AcDbLine
  8
1
 62
256
370
-1
  6
BYLAYER
 10
101.90000000000001
 20
1.0
 30
0.0
 11
101.90000000000001
 21
177.5
 31
0.0
  0
LINE
  5
62
100
AcDbEntity
100
AcDbLine
  8
2
 62
256
370
-1
  6
BYLAYER
 10
104.10000000000002
 20
1.9999999999999916
 30
0.0
 11
104.10000000000002
 21
172.00000000000003
 31
0.0
  0
LINE
  5
63
100
AcDbEntity
100
AcDbLine
  8
2
 62
256
370
-1
  6
BYLAYER
 10
274.10000000000002
 20
1.9999999999999916
 30
0.0
 11
274.10000000000002
 21
172.00000000000003
 31
0.0
  0
LINE
  5
64
100
AcDbEntity
100
AcDbLine
  8
2
 62
256
370
-1
  6
BYLAYER
 10
124.10000000000002
 20
71.84999999999998
 30
0.0
 11
224.10000000000002
 21
71.84999999999998
 31
0.0
  0
LINE
  5
65
100
AcDbEntity
100
AcDbLine
  8
3
 62
256
370
-1
  6
BYLAYER
 10
114.26000000000001
 20
1.9999999999999969
 30
0.0
 11
114.26000000000001
 21
172.00000000000003
 31
0.0
  0
LINE
  5
66
100
AcDbEntity
100
AcDbLine
  8
3
 62
256
370
-1
  6
BYLAYER
 10
269.20000000000005
 20
1.9999999999999969
 30
0.0
 11
269.20000000000005
 21
172.00000000000003
 31
0.0
  0
LINE
  5
67
100
AcDbEntity
100
AcDbLine
  8
3
 62
256
370
-1
  6
BYLAYER
 10
137.12
 20
1.9999999999999969
 30
0.0
 11
137.12
 21
172.00000000000003
 31
0.0
  0
CIRCLE
  5
68
100
AcDbEntity
100
AcDbCircle
  8
3
 62
256
370
-1
  6
BYLAYER
 10
114.26000000000003
 20
8.3499999999998842
 30
0.0
 40
2.0
  0
CIRCLE
  5
69
100
AcDbEntity
100
AcDbCircle
  8
3
 62
256
370
-1
  6
BYLAYER
 10
137.12000000000003
 20
165.82999999999998
 30
0.0
 40
2.0
  0
CIRCLE
  5
6A
100
AcDbEntity
100
AcDbCircle
  8
3
 62
256
370
-1
  6
BYLAYER
 10
269.20000000000005
 20
8.3499999999997083
 30
0.0
 40
2.0
  0
CIRCLE
  5
6B
100
AcDbEntity
100
AcDbCircle
  8
3
 62
256
370
-1
  6
BYLAYER
 10
269.20000000000005
 20
165.82999999999998
 30
0.0
 40
2.0
  0
LINE
  5
6C
100
AcDbEntity
100
AcDbLine
  8
2
 62
256
370
-1
  6
BYLAYER
 10
124.10000000000002
 20
1.9999999999999873
 30
0.0
 11
124.10000000000002
 21
71.84999999999998
 31
0.0
  0
LINE
  5
6D
100
AcDbEntity
100
AcDbLine
  8
2
 62
256
370
-1
  6
BYLAYER
 10
224.10000000000002
 20
1.9999999999999916
 30
0.0
 11
224.10000000000002
 21
71.84999999999998
 31
0.0
  0
LINE
  5
6E
100
AcDbEntity
100
AcDbLine
  8
1
 62
256
370
-1
  6
BYLAYER
 10
4.5000000000000133
 20
174.00000000000003
 30
0.0
 11
4.5000000000000133
 21
177.49999999999997
 31
0.0
  0
LINE
  5
6F
100
AcDbEntity
100
AcDbLine
  8
1
 62
256
370
-1
  6
BYLAYER
 10
30.500000000000021
 20
174.00000000000003
 30
0.0
 11
30.500000000000021
 21
177.49999999999997
 31
0.0
  0
LINE
  5
70
100
AcDbEntity
100
AcDbLine
  8
0
 62
256
370
-1
  6
BYLAYER
 10
-0.0
 20
0.0
 30
0.0
 11
35.000000000000007
 21
-0.000000000000006
 31
0.0
  0
LINE
  5
71
100
AcDbEntity
100
AcDbLine
  8
1
 62
256
370
-1
  6
BYLAYER
 10
30.500000000000007
 20
0.9999999999999946
 30
0.0
 11
30.500000000000007
 21
14.999999999999995
 31
0.0
  0
LINE
  5
72
100
AcDbEntity
100
AcDbLine
  8
1
 62
256
370
-1
  6
BYLAYER
 10
4.4999999999999991
 20
0.9999999999999992
 30
0.0
 11
4.4999999999999991
 21
15.0
 31
0.0
  0
LINE
  5
73
100
AcDbEntity
100
AcDbLine
  8
0
 62
256
370
-1
  6
BYLAYER
 10
100.0
 20
0.0
 30
0.0
 11
115.00000000000001
 21
0.0
 31
0.0
  0
LINE
  5
74
100
AcDbEntity
100
AcDbLine
  8
0
 62
256
370
-1
  6
BYLAYER
 10
100.0
 20
0.0
 30
0.0
 11
100.0
 21
15.0
 31
0.0
  0
LINE
  5
75
100
AcDbEntity
100
AcDbLine
  8
0
 62
256
370
-1
  6
BYLAYER
 10
100.0
 20
15.0
 30
0.0
 11
101.0
 21
15.0
 31
0.0
  0
LINE
  5
76
100
AcDbEntity
100
AcDbLine
  8
0
 62
256
370
-1
  6
BYLAYER
 10
0.0
 20
0.0
 30
0.0
 11
0.0000000000000114
 21
178.49999999999997
 31
0.0
  0
LINE
  5
77
100
AcDbEntity
100
AcDbLine
  8
0
 62
256
370
-1
  6
BYLAYER
 10
35.000000000000007
 20
-0.0000000000000061
 30
0.0
 11
35.000000000000021
 21
178.49999999999997
 31
0.0
  0
LINE
  5
78
100
AcDbEntity
100
AcDbLine
  8
0
 62
256
370
-1
  6
BYLAYER
 10
0.0000000000000114
 20
178.5
 30
0.0
 11
35.000000000000021
 21
178.5
 31
0.0
  0
LINE
  5
79
100
AcDbEntity
100
AcDbLine
  8
1
 62
256
370
-1
  6
BYLAYER
 10
0.9000000000000004
 20
0.9999999999999997
 30
0.0
 11
0.9000000000000118
 21
177.49999999999994
 31
0.0
  0
LINE
  5
7A
100
AcDbEntity
100
AcDbLine
  8
1
 62
256
370
-1
  6
BYLAYER
 10
34.100000000000009
 20
0.9999999999999939
 30
0.0
 11
34.100000000000023
 21
177.49999999999994
 31
0.0
  0
LINE
  5
7B
100
AcDbEntity
100
AcDbLine
  8
1
 62
256
370
-1
  6
BYLAYER
 10
1.9000000000000001
 20
0.9999999999999997
 30
0.0
 11
1.9000000000000117
 21
177.5
 31
0.0
  0
LINE
  5
7C
100
AcDbEntity
100
AcDbLine
  8
1
 62
256
370
-1
  6
BYLAYER
 10
33.100000000000009
 20
0.9999999999999939
 30
0.0
 11
33.100000000000023
 21
177.49999999999994
 31
0.0
  0
LINE
  5
7D
100
AcDbEntity
100
AcDbLine
  8
1
 62
256
370
-1
  6
BYLAYER
 10
0.0000000000000001
 20
1.0
 30
0.0
 11
35.0
 21
0.9999999999999939
 31
0.0
  0
LINE
  5
7E
100
AcDbEntity
100
AcDbLine
  8
1
 62
256
370
-1
  6
BYLAYER
 10
0.0000000000000113
 20
177.5
 30
0.0
 11
35.000000000000021
 21
177.5
 31
0.0
  0
LINE
  5
7F
100
AcDbEntity
100
AcDbLine
  8
0
 62
256
370
-1
  6
BYLAYER
 10
100.0
 20
178.5
 30
0.0
 11
115.0
 21
178.5
 31
0.0
  0
LINE
  5
80
100
AcDbEntity
100
AcDbLine
  8
0
 62
256
370
-1
  6
BYLAYER
 10
100.0
 20
174.0
 30
0.0
 11
101.00000000000001
 21
174.0
 31
0.0
  0
LINE
  5
81
100
AcDbEntity
100
AcDbLine
  8
0
 62
256
370
-1
  6
BYLAYER
 10
100.0
 20
174.0
 30
0.0
 11
100.0
 21
178.5
 31
0.0
  0
LINE
  5
82
100
AcDbEntity
100
AcDbLine
  8
1
 62
256
370
-1
  6
BYLAYER
 10
115.00000000000001
 20
177.5
 30
0.0
 11
265.29999999999995
 21
177.5
 31
0.0
  0
LINE
  5
83
100
AcDbEntity
100
AcDbLine
  8
0
 62
256
370
-1
  6
BYLAYER
 10
115.0
 20
169.20000000000002
 30
0.0
 11
115.0
 21
178.5
 31
0.0
  0
LINE
  5
84
100
AcDbEntity
100
AcDbLine
  8
0
 62
256
370
-1
  6
BYLAYER
 10
101.00000000000001
 20
177.5
 30
0.0
 11
114.99999999999999
 21
177.5
 31
0.0
  0
LINE
  5
85
100
AcDbEntity
100
AcDbLine
  8
0
 62
256
370
-1
  6
BYLAYER
 10
115.00000000000001
 20
178.40000000000001
 30
0.0
 11
265.29999999999995
 21
178.40000000000001
 31
0.0
  0
LINE
  5
86
100
AcDbEntity
100
AcDbLine
  8
0
 62
256
370
-1
  6
BYLAYER
 10
115.00000000000001
 20
169.20000000000002
 30
0.0
 11
265.29999999999995
 21
169.20000000000002
 31
0.0
  0
LINE
  5
87
100
AcDbEntity
100
AcDbLine
  8
1
 62
256
370
-1
  6
BYLAYER
 10
278.39999999999998
 20
1.0
 30
0.0
 11
278.39999999999998
 21
177.5
 31
0.0
  0
LINE
  5
88
100
AcDbEntity
100
AcDbLine
  8
0
 62
256
370
-1
  6
BYLAYER
 10
279.29999999999995
 20
1.0
 30
0.0
 11
279.29999999999995
 21
177.5
 31
0.0
  0
LINE
  5
89
100
AcDbEntity
100
AcDbLine
  8
0
 62
256
370
-1
  6
BYLAYER
 10
280.29999999999995
 20
0.0000000000000014
 30
0.0
 11
280.29999999999995
 21
15.000000000000004
 31
0.0
  0
LINE
  5
8A
100
AcDbEntity
100
AcDbLine
  8
0
 62
256
370
-1
  6
BYLAYER
 10
265.29999999999995
 20
0.0000000000000016
 30
0.0
 11
265.29999999999995
 21
9.3000000000000007
 31
0.0
  0
LINE
  5
8B
100
AcDbEntity
100
AcDbLine
  8
0
 62
256
370
-1
  6
BYLAYER
 10
265.29999999999995
 20
169.20000000000002
 30
0.0
 11
265.29999999999995
 21
178.5
 31
0.0
  0
LINE
  5
8C
100
AcDbEntity
100
AcDbLine
  8
0
 62
256
370
-1
  6
BYLAYER
 10
280.29999999999995
 20
163.5
 30
0.0
 11
280.29999999999995
 21
178.5
 31
0.0
  0
LINE
  5
8D
100
AcDbEntity
100
AcDbLine
  8
0
 62
256
370
-1
  6
BYLAYER
 10
265.29999999999995
 20
0.0000000000000014
 30
0.0
 11
280.29999999999995
 21
0.0000000000000014
 31
0.0
  0
LINE
  5
8E
100
AcDbEntity
100
AcDbLine
  8
0
 62
256
370
-1
  6
BYLAYER
 10
265.29999999999995
 20
178.5
 30
0.0
 11
280.30000000000001
 21
178.5
 31
0.0
  0
LINE
  5
8F
100
AcDbEntity
100
AcDbLine
  8
0
 62
256
370
-1
  6
BYLAYER
 10
265.29999999999995
 20
177.5
 30
0.0
 11
279.30000000000001
 21
177.5
 31
0.0
  0
LINE
  5
90
100
AcDbEntity
100
AcDbLine
  8
0
 62
256
370
-1
  6
BYLAYER
 10
270.09999999999997
 20
1.0
 30
0.0
 11
270.09999999999997
 21
177.5
 31
0.0
  0
LINE
  5
91
100
AcDbEntity
100
AcDbLine
  8
0
 62
256
370
-1
  6
BYLAYER
 10
265.29999999999995
 20
1.0
 30
0.0
 11
279.29999999999995
 21
1.0
 31
0.0
  0
LINE
  5
92
100
AcDbEntity
100
AcDbLine
  8
0
 62
256
370
-1
  6
BYLAYER
 10
279.29999999999995
 20
15.000000000000002
 30
0.0
 11
280.29999999999995
 21
15.000000000000002
 31
0.0
  0
LINE
  5
93
100
AcDbEntity
100
AcDbLine
  8
0
 62
256
370
-1
  6
BYLAYER
 10
115.0
 20
0.0
 30
0.0
 11
115.0
 21
9.3000000000000007
 31
0.0
  0
LINE
  5
94
100
AcDbEntity
100
AcDbLine
  8
1
 62
256
370
-1
  6
BYLAYER
 10
115.0
 20
1.0
 30
0.0
 11
265.29999999999995
 21
1.0
 31
0.0
  0
LINE
  5
95
100
AcDbEntity
100
AcDbLine
  8
0
 62
256
370
-1
  6
BYLAYER
 10
279.29999999999995
 20
163.5
 30
0.0
 11
280.30000000000001
 21
163.5
 31
0.0
  0
LINE
  5
96
100
AcDbEntity
100
AcDbLine
  8
0
 62
256
370
-1
  6
BYLAYER
 10
330.5
 20
14.999999999999993
 30
0.0
 11
330.5
 21
163.5
 31
0.0
  0
LINE
  5
97
100
AcDbEntity
100
AcDbLine
  8
1
 62
256
370
-1
  6
BYLAYER
 10
304.5
 20
163.5
 30
0.0
 11
304.5
 21
177.49999999999997
 31
0.0
  0
LINE
  5
98
100
AcDbEntity
100
AcDbLine
  8
1
 62
256
370
-1
  6
BYLAYER
 10
330.5
 20
163.5
 30
0.0
 11
330.5
 21
177.49999999999997
 31
0.0
  0
LINE
  5
99
100
AcDbEntity
100
AcDbLine
  8
0
 62
256
370
-1
  6
BYLAYER
 10
300.0
 20
0.0
 30
0.0
 11
335.0
 21
-0.000000000000006
 31
0.0
  0
LINE
  5
9A
100
AcDbEntity
100
AcDbLine
  8
1
 62
256
370
-1
  6
BYLAYER
 10
330.5
 20
0.9999999999999946
 30
0.0
 11
330.5
 21
14.999999999999995
 31
0.0
  0
LINE
  5
9B
100
AcDbEntity
100
AcDbLine
  8
0
 62
256
370
-1
  6
BYLAYER
 10
300.0
 20
15.000000000000004
 30
0.0
 11
335.0
 21
14.999999999999993
 31
0.0
  0
LINE
  5
9C
100
AcDbEntity
100
AcDbLine
  8
1
 62
256
370
-1
  6
BYLAYER
 10
304.5
 20
0.9999999999999992
 30
0.0
 11
304.5
 21
15.0
 31
0.0
  0
LINE
  5
9D
100
AcDbEntity
100
AcDbLine
  8
0
 62
256
370
-1
  6
BYLAYER
 10
300.0
 20
0.0
 30
0.0
 11
300.0
 21
178.49999999999997
 31
0.0
  0
LINE
  5
9E
100
AcDbEntity
100
AcDbLine
  8
0
 62
256
370
-1
  6
BYLAYER
 10
335.0
 20
-0.0000000000000061
 30
0.0
 11
335.0
 21
178.49999999999997
 31
0.0
  0
LINE
  5
9F
100
AcDbEntity
100
AcDbLine
  8
0
 62
256
370
-1
  6
BYLAYER
 10
300.0
 20
178.5
 30
0.0
 11
335.0
 21
178.5
 31
0.0
  0
LINE
  5
A0
100
AcDbEntity
100
AcDbLine
  8
1
 62
256
370
-1
  6
BYLAYER
 10
300.89999999999998
 20
0.9999999999999997
 30
0.0
 11
300.90000000000003
 21
177.49999999999994
 31
0.0
  0
LINE
  5
A1
100
AcDbEntity
100
AcDbLine
  8
1
 62
256
370
-1
  6
BYLAYER
 10
334.10000000000002
 20
0.9999999999999939
 30
0.0
 11
334.10000000000002
 21
177.49999999999994
 31
0.0
  0
LINE
  5
A2
100
AcDbEntity
100
AcDbLine
  8
1
 62
256
370
-1
  6
BYLAYER
 10
301.89999999999998
 20
0.9999999999999997
 30
0.0
 11
301.90000000000003
 21
177.5
 31
0.0
  0
LINE
  5
A3
100
AcDbEntity
100
AcDbLine
  8
1
 62
256
370
-1
  6
BYLAYER
 10
333.10000000000002
 20
0.9999999999999939
 30
0.0
 11
333.10000000000002
 21
177.49999999999994
 31
0.0
  0
LINE
  5
A4
100
AcDbEntity
100
AcDbLine
  8
1
 62
256
370
-1
  6
BYLAYER
 10
300.0
 20
1.0
 30
0.0
 11
335.0
 21
0.9999999999999939
 31
0.0
  0
LINE
  5
A5
100
AcDbEntity
100
AcDbLine
  8
1
 62
256
370
-1
  6
BYLAYER
 10
300.0
 20
177.5
 30
0.0
 11
335.0
 21
177.5
 31
0.0
  0
LINE
  5
A6
100
AcDbEntity
100
AcDbLine
  8
0
 62
256
370
-1
  6
BYLAYER
 10
304.5
 20
15.0
 30
0.0
 11
304.5
 21
163.5
 31
0.0
  0
LINE
  5
A7
100
AcDbEntity
100
AcDbLine
  8
2
 62
256
370
-1
  6
BYLAYER
 10
326.43000000000001
 20
0.9999999999999986
 30
0.0
 11
326.43000000000001
 21
170.99999999999994
 31
0.0
  0
LINE
  5
A8
100
AcDbEntity
100
AcDbLine
  8
2
 62
256
370
-1
  6
BYLAYER
 10
328.0
 20
0.9999999999999986
 30
0.0
 11
328.0
 21
170.99999999999994
 31
0.0
  0
LINE
  5
A9
100
AcDbEntity
100
AcDbLine
  8
2
 62
256
370
-1
  6
BYLAYER
 10
326.43000000000001
 20
0.9999999999999981
 30
0.0
 11
328.0
 21
0.9999999999999977
 31
0.0
  0
LINE
  5
AA
100
AcDbEntity
100
AcDbLine
  8
2
 62
256
370
-1
  6
BYLAYER
 10
308.89999999999992
 20
1.0000000000000142
 30
0.0
 11
301.89999999999992
 21
1.0000000000000142
 31
0.0
  0
LINE
  5
AB
100
AcDbEntity
100
AcDbLine
  8
2
 62
256
370
-1
  6
BYLAYER
 10
326.43000000000001
 20
171.0
 30
0.0
 11
328.0
 21
171.0
 31
0.0
  0
LINE
  5
AC
100
AcDbEntity
100
AcDbLine
  8
2
 62
256
370
-1
  6
BYLAYER
 10
308.89999999999992
 20
70.850000000000009
 30
0.0
 11
301.89999999999992
 21
70.850000000000009
 31
0.0
  0
LINE
  5
AD
100
AcDbEntity
100
AcDbLine
  8
2
 62
256
370
-1
  6
BYLAYER
 10
308.89999999999992
 20
70.850000000000009
 30
0.0
 11
308.89999999999992
 21
1.0000000000000142
 31
0.0
  0
LINE
  5
AE
100
AcDbEntity
100
AcDbLine
  8
2
 62
256
370
-1
  6
BYLAYER
 10
301.89999999999992
 20
70.850000000000009
 30
0.0
 11
301.89999999999992
 21
1.0000000000000142
 31
0.0
  0
LINE
  5
AF
100
AcDbEntity
100
AcDbLine
  8
0
 62
256
370
-1
  6
BYLAYER
 10
300.0
 20
163.5
 30
0.0
 11
335.0
 21
163.5
 31
0.0
  0
LINE
  5
B0
100
AcDbEntity
100
AcDbLine
  8
0
 62
256
370
-1
  6
BYLAYER
 10
280.30000000000007
 20
234.99999999999991
 30
0.0
 11
280.30000000000001
 21
199.99999999999994
 31
0.0
  0
LINE
  5
B1
100
AcDbEntity
100
AcDbLine
  8
0
 62
256
370
-1
  6
BYLAYER
 10
100.00000000000003
 20
235.0
 30
0.0
 11
115.00000000000003
 21
235.0
 31
0.0
  0
LINE
  5
B2
100
AcDbEntity
100
AcDbLine
  8
0
 62
256
370
-1
  6
BYLAYER
 10
115.00000000000003
 20
234.99999999999997
 30
0.0
 11
115.00000000000001
 21
200.0
 31
0.0
  0
LINE
  5
B3
100
AcDbEntity
100
AcDbLine
  8
0
 62
256
370
-1
  6
BYLAYER
 10
265.30000000000007
 20
234.99999999999991
 30
0.0
 11
265.30000000000001
 21
199.99999999999997
 31
0.0
  0
LINE
  5
B4
100
AcDbEntity
100
AcDbLine
  8
1
 62
256
370
-1
  6
BYLAYER
 10
101.00000000000001
 20
234.99999999999997
 30
0.0
 11
101.00000000000001
 21
200.0
 31
0.0
  0
LINE
  5
B5
100
AcDbEntity
100
AcDbLine
  8
1
 62
256
370
-1
  6
BYLAYER
 10
279.30000000000007
 20
234.99999999999991
 30
0.0
 11
279.30000000000007
 21
199.99999999999994
 31
0.0
  0
LINE
  5
B6
100
AcDbEntity
100
AcDbLine
  8
1
 62
256
370
-1
  6
BYLAYER
 10
101.90000000000003
 20
234.09999999999999
 30
0.0
 11
278.40000000000003
 21
234.09999999999999
 31
0.0
  0
LINE
  5
B7
100
AcDbEntity
100
AcDbLine
  8
1
 62
256
370
-1
  6
BYLAYER
 10
101.90000000000001
 20
200.90000000000001
 30
0.0
 11
278.40000000000009
 21
200.90000000000001
 31
0.0
  0
LINE
  5
B8
100
AcDbEntity
100
AcDbLine
  8
1
 62
256
370
-1
  6
BYLAYER
 10
101.90000000000003
 20
234.09999999999999
 30
0.0
 11
101.90000000000003
 21
225.80000000000001
 31
0.0
  0
LINE
  5
B9
100
AcDbEntity
100
AcDbLine
  8
1
 62
256
370
-1
  6
BYLAYER
 10
278.40000000000009
 20
234.09999999999997
 30
0.0
 11
278.40000000000009
 21
225.79999999999993
 31
0.0
  0
LINE
  5
BA
100
AcDbEntity
100
AcDbLine
  8
1
 62
256
370
-1
  6
BYLAYER
 10
278.40000000000009
 20
209.19999999999993
 30
0.0
 11
278.40000000000003
 21
200.89999999999992
 31
0.0
  0
LINE
  5
BB
100
AcDbEntity
100
AcDbLine
  8
1
 62
256
370
-1
  6
BYLAYER
 10
101.90000000000003
 20
209.19999999999999
 30
0.0
 11
101.90000000000002
 21
200.90000000000001
 31
0.0
  0
LINE
  5
BC
100
AcDbEntity
100
AcDbLine
  8
1
 62
256
370
-1
  6
BYLAYER
 10
110.20000000000003
 20
234.99999999999997
 30
0.0
 11
110.20000000000003
 21
234.09999999999999
 31
0.0
  0
LINE
  5
BD
100
AcDbEntity
100
AcDbLine
  8
1
 62
256
370
-1
  6
BYLAYER
 10
101.00000000000003
 20
225.80000000000001
 30
0.0
 11
101.90000000000003
 21
225.80000000000001
 31
0.0
  0
LINE
  5
BE
100
AcDbEntity
100
AcDbLine
  8
1
 62
256
370
-1
  6
BYLAYER
 10
101.00000000000003
 20
209.19999999999999
 30
0.0
 11
101.90000000000002
 21
209.19999999999999
 31
0.0
  0
LINE
  5
BF
100
AcDbEntity
100
AcDbLine
  8
1
 62
256
370
-1
  6
BYLAYER
 10
110.20000000000002
 20
200.89999999999998
 30
0.0
 11
110.20000000000002
 21
200.0
 31
0.0
  0
LINE
  5
C0
100
AcDbEntity
100
AcDbLine
  8
0
 62
256
370
-1
  6
BYLAYER
 10
265.30000000000013
 20
234.99999999999994
 30
0.0
 11
280.30000000000007
 21
234.99999999999994
 31
0.0
  0
LINE
  5
C1
100
AcDbEntity
100
AcDbLine
  8
0
 62
256
370
-1
  6
BYLAYER
 10
265.30000000000001
 20
199.99999999999994
 30
0.0
 11
280.30000000000007
 21
199.99999999999994
 31
0.0
  0
LINE
  5
C2
100
AcDbEntity
100
AcDbLine
  8
1
 62
256
370
-1
  6
BYLAYER
 10
270.10000000000008
 20
234.99999999999994
 30
0.0
 11
270.10000000000008
 21
234.09999999999994
 31
0.0
  0
LINE
  5
C3
100
AcDbEntity
100
AcDbLine
  8
1
 62
256
370
-1
  6
BYLAYER
 10
278.40000000000009
 20
225.79999999999995
 30
0.0
 11
279.30000000000007
 21
225.79999999999995
 31
0.0
  0
LINE
  5
C4
100
AcDbEntity
100
AcDbLine
  8
1
 62
256
370
-1
  6
BYLAYER
 10
278.40000000000009
 20
209.19999999999993
 30
0.0
 11
279.30000000000001
 21
209.19999999999993
 31
0.0
  0
LINE
  5
C5
100
AcDbEntity
100
AcDbLine
  8
1
 62
256
370
-1
  6
BYLAYER
 10
270.10000000000002
 20
200.89999999999995
 30
0.0
 11
270.10000000000002
 21
199.99999999999997
 31
0.0
  0
LINE
  5
C6
100
AcDbEntity
100
AcDbLine
  8
1
 62
256
370
-1
  6
BYLAYER
 10
101.90000000000003
 20
233.09999999999997
 30
0.0
 11
278.40000000000009
 21
233.09999999999994
 31
0.0
  0
LINE
  5
C7
100
AcDbEntity
100
AcDbLine
  8
1
 62
256
370
-1
  6
BYLAYER
 10
101.90000000000002
 20
201.90000000000001
 30
0.0
 11
278.40000000000009
 21
201.89999999999995
 31
0.0
  0
LINE
  5
C8
100
AcDbEntity
100
AcDbLine
  8
0
 62
256
370
-1
  6
BYLAYER
 10
110.20000000000003
 20
234.99999999999997
 30
0.0
 11
270.10000000000008
 21
234.99999999999994
 31
0.0
  0
LINE
  5
C9
100
AcDbEntity
100
AcDbLine
  8
0
 62
256
370
-1
  6
BYLAYER
 10
110.20000000000002
 20
200.0
 30
0.0
 11
270.10000000000002
 21
199.99999999999994
 31
0.0
  0
LINE
  5
CA
100
AcDbEntity
100
AcDbLine
  8
0
 62
256
370
-1
  6
BYLAYER
 10
115.00000000000003
 20
225.79999999999998
 30
0.0
 11
265.30000000000007
 21
225.79999999999995
 31
0.0
  0
LINE
  5
CB
100
AcDbEntity
100
AcDbLine
  8
0
 62
256
370
-1
  6
BYLAYER
 10
115.00000000000001
 20
209.19999999999999
 30
0.0
 11
265.30000000000007
 21
209.19999999999993
 31
0.0
  0
LINE
  5
CC
100
AcDbEntity
100
AcDbLine
  8
3
 62
256
370
-1
  6
BYLAYER
 10
26.100000000000023
 20
67.799999999999983
 30
0.0
 11
308.89999999999986
 21
67.799999999999983
 31
0.0
  0
LINE
  5
CD
100
AcDbEntity
100
AcDbLine
  8
3
 62
256
370
-1
  6
BYLAYER
 10
138.10000000000002
 20
1.9999999999999873
 30
0.0
 11
138.10000000000002
 21
71.84999999999998
 31
0.0
  0
LINE
  5
CE
100
AcDbEntity
100
AcDbLine
  8
3
 62
256
370
-1
  6
BYLAYER
 10
214.70000000000002
 20
1.9999999999999873
 30
0.0
 11
214.70000000000002
 21
71.84999999999998
 31
0.0
  0
CIRCLE
  5
CF
100
AcDbEntity
100
AcDbCircle
  8
0
 62
256
370
-1
  6
BYLAYER
 10
138.10000000000002
 20
67.799999999999983
 30
0.0
 40
1.5
  0
CIRCLE
  5
D0
100
AcDbEntity
100
AcDbCircle
  8
0
 62
256
370
-1
  6
BYLAYER
 10
214.70000000000002
 20
67.799999999999983
 30
0.0
 40
1.5
  0
LINE
  5
D1
100
AcDbEntity
100
AcDbLine
  8
3
 62
256
370
-1
  6
BYLAYER
 10
-0.0000000000000005
 20
8.0000000000000036
 30
0.0
 11
35.000000000000007
 21
7.9999999999999929
 31
0.0
  0
LINE
  5
D2
100
AcDbEntity
100
AcDbLine
  8
3
 62
256
370
-1
  6
BYLAYER
 10
17.5
 20
0.0
 30
0.0
 11
17.5
 21
15.000000000000002
 31
0.0
  0
CIRCLE
  5
D3
100
AcDbEntity
100
AcDbCircle
  8
0
 62
256
370
-1
  6
BYLAYER
 10
17.5
 20
7.9999999999999973
 30
0.0
 40
2.5
  0
CIRCLE
  5
D4
100
AcDbEntity
100
AcDbCircle
  8
2
 62
256
370
-1
  6
BYLAYER
 10
17.5
 20
7.9999999999999973
 30
0.0
 40
4.0
  0
LINE
  5
D5
100
AcDbEntity
100
AcDbLine
  8
3
 62
256
370
-1
  6
BYLAYER
 10
26.5
 20
0.0
 30
0.0
 11
26.5
 21
14.999999999999998
 31
0.0
  0
LINE
  5
D6
100
AcDbEntity
100
AcDbLine
  8
3
 62
256
370
-1
  6
BYLAYER
 10
0.0000000000000004
 20
11.000000000000004
 30
0.0
 11
35.000000000000007
 21
10.999999999999993
 31
0.0
  0
LINE
  5
D7
100
AcDbEntity
100
AcDbLine
  8
3
 62
256
370
-1
  6
BYLAYER
 10
-0.000000000000001
 20
5.0000000000000036
 30
0.0
 11
35.000000000000007
 21
4.9999999999999929
 31
0.0
  0
CIRCLE
  5
D8
100
AcDbEntity
100
AcDbCircle
  8
0
 62
256
370
-1
  6
BYLAYER
 10
26.5
 20
10.999999999999996
 30
0.0
 40
1.5
  0
CIRCLE
  5
D9
100
AcDbEntity
100
AcDbCircle
  8
0
 62
256
370
-1
  6
BYLAYER
 10
26.5
 20
4.9999999999999964
 30
0.0
 40
1.5
  0
CIRCLE
  5
DA
100
AcDbEntity
100
AcDbCircle
  8
2
 62
256
370
-1
  6
BYLAYER
 10
137.12
 20
165.82999999999998
 30
0.0
 40
3.5
  0
CIRCLE
  5
DB
100
AcDbEntity
100
AcDbCircle
  8
2
 62
256
370
-1
  6
BYLAYER
 10
269.20000000000005
 20
165.82999999999998
 30
0.0
 40
3.5
  0
CIRCLE
  5
DC
100
AcDbEntity
100
AcDbCircle
  8
2
 62
256
370
-1
  6
BYLAYER
 10
269.20000000000005
 20
8.3499999999997048
 30
0.0
 40
3.5
  0
CIRCLE
  5
DD
100
AcDbEntity
100
AcDbCircle
  8
2
 62
256
370
-1
  6
BYLAYER
 10
114.26000000000001
 20
8.3499999999998789
 30
0.0
 40
3.5
  0
ENDSEC
  0
SECTION
  2
OBJECTS
  0
DICTIONARY
  5
C
100
AcDbDictionary
280
0
281
1
  3
ACAD_GROUP
350
D
  3
ACAD_LAYOUT
350
1A
  3
ACAD_MLINESTYLE
350
17
  3
ACAD_PLOTSETTINGS
350
19
  3
ACAD_PLOTSTYLENAME
350
E
  3
AcDbVariableDictionary
350
DE
  3
QCAD_OBJECTS
350
DF
  0
DICTIONARY
  5
D
100
AcDbDictionary
280
0
281
1
  0
ACDBDICTIONARYWDFLT
  5
E
100
AcDbDictionary
281
1
  3
Normal
350
F
100
AcDbDictionaryWithDefault
340
F
  0
ACDBPLACEHOLDER
  5
F
  0
DICTIONARY
  5
17
100
AcDbDictionary
280
0
281
1
  3
Standard
350
18
  0
MLINESTYLE
  5
18
100
AcDbMlineStyle
  2
STANDARD
 70
0
  3

 62
256
 51
90.0
 52
90.0
 71
2
 49
0.5
 62
256
  6
BYLAYER
 49
-0.5
 62
256
  6
BYLAYER
  0
DICTIONARY
  5
19
100
AcDbDictionary
280
0
281
1
  0
DICTIONARY
  5
1A
100
AcDbDictionary
281
1
  3
Layout1
350
1E
  3
Layout2
350
26
  3
Model
350
22
  0
LAYOUT
  5
1E
100
AcDbPlotSettings
  1

  2
none_device
  4

  6

 40
0.0
 41
0.0
 42
0.0
 43
0.0
 44
0.0
 45
0.0
 46
0.0
 47
0.0
 48
0.0
 49
0.0
140
0.0
141
0.0
142
1.0
143
1.0
 70
688
 72
0
 73
0
 74
5
  7

 75
16
147
1.0
148
0.0
149
0.0
100
AcDbLayout
  1
Layout1
 70
1
 71
1
 10
0.0
 20
0.0
 11
420.0
 21
297.0
 12
0.0
 22
0.0
 32
0.0
 14
100000000000000000000.0
 24
100000000000000000000.0
 34
100000000000000000000.0
 15
-100000000000000000000.0
 25
-100000000000000000000.0
 35
-100000000000000000000.0
146
0.0
 13
0.0
 23
0.0
 33
0.0
 16
1.0
 26
0.0
 36
0.0
 17
0.0
 27
1.0
 37
0.0
 76
0
330
1B
  0
LAYOUT
  5
22
100
AcDbPlotSettings
  1

  2
none_device
  4

  6

 40
0.0
 41
0.0
 42
0.0
 43
0.0
 44
0.0
 45
0.0
 46
0.0
 47
0.0
 48
0.0
 49
0.0
140
0.0
141
0.0
142
1.0
143
1.0
 70
1712
 72
0
 73
0
 74
0
  7

 75
0
147
1.0
148
0.0
149
0.0
100
AcDbLayout
  1
Model
 70
1
 71
0
 10
0.0
 20
0.0
 11
12.0
 21
9.0
 12
0.0
 22
0.0
 32
0.0
 14
0.0
 24
0.0
 34
0.0
 15
0.0
 25
0.0
 35
0.0
146
0.0
 13
0.0
 23
0.0
 33
0.0
 16
1.0
 26
0.0
 36
0.0
 17
0.0
 27
1.0
 37
0.0
 76
0
330
1F
  0
LAYOUT
  5
26
100
AcDbPlotSettings
  1

  2
none_device
  4

  6

 40
0.0
 41
0.0
 42
0.0
 43
0.0
 44
0.0
 45
0.0
 46
0.0
 47
0.0
 48
0.0
 49
0.0
140
0.0
141
0.0
142
1.0
143
1.0
 70
688
 72
0
 73
0
 74
5
  7

 75
16
147
1.0
148
0.0
149
0.0
100
AcDbLayout
  1
Layout2
 70
1
 71
2
 10
0.0
 20
0.0
 11
12.0
 21
9.0
 12
0.0
 22
0.0
 32
0.0
 14
0.0
 24
0.0
 34
0.0
 15
0.0
 25
0.0
 35
0.0
146
0.0
 13
0.0
 23
0.0
 33
0.0
 16
1.0
 26
0.0
 36
0.0
 17
0.0
 27
1.0
 37
0.0
 76
0
330
23
  0
DICTIONARY
  5
DE
100
AcDbDictionary
281
1
  3
DIMASSOC
350
E1
  3
HIDETEXT
350
E0
  0
DICTIONARYVAR
  5
E0
100
DictionaryVariables
280
0
  1
2
  0
DICTIONARYVAR
  5
E1
100
DictionaryVariables
280
0
  1
1
  0
DICTIONARY
  5
DF
100
AcDbDictionary
281
1
  3
Grid/DisplayGrid00
350
E2
  3
Grid/DisplayGrid01
350
E3
  3
Grid/DisplayGrid02
350
E4
  3
Grid/DisplayGrid03
350
E5
  3
Grid/GridSpacingX00
350
E6
  3
Grid/GridSpacingX01
350
E7
  3
Grid/GridSpacingX02
350
E8
  3
Grid/GridSpacingX03
350
E9
  3
Grid/GridSpacingY00
350
EA
  3
Grid/GridSpacingY01
350
EB
  3
Grid/GridSpacingY02
350
EC
  3
Grid/GridSpacingY03
350
ED
  3
Grid/IsometricGrid00
350
EE
  3
Grid/IsometricGrid01
350
EF
  3
Grid/IsometricGrid02
350
F0
  3
Grid/IsometricGrid03
350
F1
  3
Grid/IsometricProjection00
350
F2
  3
Grid/IsometricProjection01
350
F3
  3
Grid/IsometricProjection02
350
F4
  3
Grid/IsometricProjection03
350
F5
  3
Grid/MetaGridSpacingX00
350
F6
  3
Grid/MetaGridSpacingX01
350
F7
  3
Grid/MetaGridSpacingX02
350
F8
  3
Grid/MetaGridSpacingX03
350
F9
  3
Grid/MetaGridSpacingY00
350
FA
  3
Grid/MetaGridSpacingY01
350
FB
  3
Grid/MetaGridSpacingY02
350
FC
  3
Grid/MetaGridSpacingY03
350
FD
  3
MultiPageSettings/Columns
350
FE
  3
MultiPageSettings/GlueMarginsBottom
350
FF
  3
MultiPageSettings/GlueMarginsLeft
350
100
  3
MultiPageSettings/GlueMarginsRight
350
101
  3
MultiPageSettings/GlueMarginsTop
350
102
  3
MultiPageSettings/PrintCropMarks
350
103
  3
MultiPageSettings/Rows
350
104
  3
PageSettings/OffsetX
350
105
  3
PageSettings/OffsetY
350
106
  3
PageSettings/PageOrientation
350
107
  3
PageSettings/PaperHeight
350
108
  3
PageSettings/PaperWidth
350
109
  3
PageSettings/Scale
350
10A
  3
PageSettings/ShowPaperBorders
350
10B
  3
UnitSettings/PaperUnit
350
10C
  0
XRECORD
  5
E2
330
DF
100
AcDbXrecord
280
1
290
1
  0
XRECORD
  5
E3
330
DF
100
AcDbXrecord
280
1
290
1
  0
XRECORD
  5
E4
330
DF
100
AcDbXrecord
280
1
290
1
  0
XRECORD
  5
E5
330
DF
100
AcDbXrecord
280
1
290
1
  0
XRECORD
  5
E6
330
DF
100
AcDbXrecord
280
1
1000
auto
  0
XRECORD
  5
E7
330
DF
100
AcDbXrecord
280
1
1000
auto
  0
XRECORD
  5
E8
330
DF
100
AcDbXrecord
280
1
1000
auto
  0
XRECORD
  5
E9
330
DF
100
AcDbXrecord
280
1
1000
auto
  0
XRECORD
  5
EA
330
DF
100
AcDbXrecord
280
1
1000
auto
  0
XRECORD
  5
EB
330
DF
100
AcDbXrecord
280
1
1000
auto
  0
XRECORD
  5
EC
330
DF
100
AcDbXrecord
280
1
1000
auto
  0
XRECORD
  5
ED
330
DF
100
AcDbXrecord
280
1
1000
auto
  0
XRECORD
  5
EE
330
DF
100
AcDbXrecord
280
1
290
0
  0
XRECORD
  5
EF
330
DF
100
AcDbXrecord
280
1
290
0
  0
XRECORD
  5
F0
330
DF
100
AcDbXrecord
280
1
290
0
  0
XRECORD
  5
F1
330
DF
100
AcDbXrecord
280
1
290
0
  0
XRECORD
  5
F2
330
DF
100
AcDbXrecord
280
1
 90
0
  0
XRECORD
  5
F3
330
DF
100
AcDbXrecord
280
1
 90
0
  0
XRECORD
  5
F4
330
DF
100
AcDbXrecord
280
1
 90
0
  0
XRECORD
  5
F5
330
DF
100
AcDbXrecord
280
1
 90
0
  0
XRECORD
  5
F6
330
DF
100
AcDbXrecord
280
1
1000
auto
  0
XRECORD
  5
F7
330
DF
100
AcDbXrecord
280
1
1000
auto
  0
XRECORD
  5
F8
330
DF
100
AcDbXrecord
280
1
1000
auto
  0
XRECORD
  5
F9
330
DF
100
AcDbXrecord
280
1
1000
auto
  0
XRECORD
  5
FA
330
DF
100
AcDbXrecord
280
1
1000
auto
  0
XRECORD
  5
FB
330
DF
100
AcDbXrecord
280
1
1000
auto
  0
XRECORD
  5
FC
330
DF
100
AcDbXrecord
280
1
1000
auto
  0
XRECORD
  5
FD
330
DF
100
AcDbXrecord
280
1
1000
auto
  0
XRECORD
  5
FE
330
DF
100
AcDbXrecord
280
1
 90
1
  0
XRECORD
  5
FF
330
DF
100
AcDbXrecord
280
1
 40
10.0
  0
XRECORD
  5
100
330
DF
100
AcDbXrecord
280
1
 40
10.0
  0
XRECORD
  5
101
330
DF
100
AcDbXrecord
280
1
 40
10.0
  0
XRECORD
  5
102
330
DF
100
AcDbXrecord
280
1
 40
10.0
  0
XRECORD
  5
103
330
DF
100
AcDbXrecord
280
1
290
0
  0
XRECORD
  5
104
330
DF
100
AcDbXrecord
280
1
 90
1
  0
XRECORD
  5
105
330
DF
100
AcDbXrecord
280
1
 40
0.0
  0
XRECORD
  5
106
330
DF
100
AcDbXrecord
280
1
 40
0.0
  0
XRECORD
  5
107
330
DF
100
AcDbXrecord
280
1
1000
Portrait
  0
XRECORD
  5
108
330
DF
100
AcDbXrecord
280
1
 40
297.0
  0
XRECORD
  5
109
330
DF
100
AcDbXrecord
280
1
 40
210.0
  0
XRECORD
  5
10A
330
DF
100
AcDbXrecord
280
1
1000
1:1
  0
XRECORD
  5
10B
330
DF
100
AcDbXrecord
280
1
290
1
  0
XRECORD
  5
10C
330
DF
100
AcDbXrecord
280
1
 90
4
  0
ENDSEC
  0
EOF
