999
dxflib 3.3.4.0
  0
SECTION
  2
HEADER
  9
$ACADVER
  1
AC1015
  9
$HANDSEED
  5
FFFF
  9
$DIMADEC
 70
0
  9
$DIMASZ
 40
2.5
  9
$DIMAUNIT
 70
0
  9
$DIMAZIN
 70
2
  9
$DIMDEC
 70
4
  9
$DIMEXE
 40
1.25
  9
$DIMEXO
 40
0.625
  9
$DIMGAP
 40
0.625
  9
$DIMLUNIT
 70
2
  9
$DIMTSZ
 40
0.0
  9
$DIMTXT
 40
2.5
  9
$DIMZIN
 70
8
  9
$DWGCODEPAGE
  3
ANSI_1252
  9
$INSUNITS
 70
4
  9
$LTSCALE
 40
1.0
  0
ENDSEC
  0
SECTION
  2
TABLES
  0
TABLE
  2
VPORT
  5
8
100
AcDbSymbolTable
 70
1
  0
VPORT
  5
30
100
AcDbSymbolTableRecord
100
AcDbViewportTableRecord
  2
*Active
 70
0
 10
0.0
 20
0.0
 11
1.0
 21
1.0
 12
286.30555555555549
 22
148.5
 13
0.0
 23
0.0
 14
10.0
 24
10.0
 15
10.0
 25
10.0
 16
0.0
 26
0.0
 36
1.0
 17
0.0
 27
0.0
 37
0.0
 40
297.0
 41
1.92798353909465
 42
50.0
 43
0.0
 44
0.0
 50
0.0
 51
0.0
 71
0
 72
100
 73
1
 74
3
 75
1
 76
1
 77
0
 78
0
281
0
 65
1
110
0.0
120
0.0
130
0.0
111
1.0
121
0.0
131
0.0
112
0.0
122
1.0
132
0.0
 79
0
146
0.0
  0
ENDTAB
  0
TABLE
  2
LTYPE
  5
5
100
AcDbSymbolTable
 70
21
  0
LTYPE
  5
16
100
AcDbSymbolTableRecord
100
AcDbLinetypeTableRecord
  2
CONTINUOUS
 70
0
  3
Solid line
 72
65
 73
0
 40
0.0
  0
LTYPE
  5
31
100
AcDbSymbolTableRecord
100
AcDbLinetypeTableRecord
  2
CENTER2
 70
0
  3
Center (.5x) ___ _ ___ _ ___ _ ___ _ ___ _ ___
 72
65
 73
4
 40
28.574999999999999
 49
19.050000000000001
 74
0
 49
-3.1749999999999998
 74
0
 49
3.1749999999999998
 74
0
 49
-3.1749999999999998
 74
0
  0
LTYPE
  5
32
100
AcDbSymbolTableRecord
100
AcDbLinetypeTableRecord
  2
DIVIDEX2
 70
0
  3
Divide (2x) ________  .  .  ________  .  .  _
 72
65
 73
6
 40
63.5
 49
25.399999999999999
 74
0
 49
-12.699999999999999
 74
0
 49
0.0
 74
0
 49
-12.699999999999999
 74
0
 49
0.0
 74
0
 49
-12.699999999999999
 74
0
  0
LTYPE
  5
33
100
AcDbSymbolTableRecord
100
AcDbLinetypeTableRecord
  2
DOT2
 70
0
  3
Dot (.5x) .....................................
 72
65
 73
2
 40
3.1749999999999998
 49
0.0
 74
0
 49
-3.1749999999999998
 74
0
  0
LTYPE
  5
34
100
AcDbSymbolTableRecord
100
AcDbLinetypeTableRecord
  2
DASHDOT2
 70
0
  3
Dash dot (.5x) _._._._._._._._._._._._._._._.
 72
65
 73
4
 40
12.699999999999999
 49
6.3499999999999996
 74
0
 49
-3.1749999999999998
 74
0
 49
0.0
 74
0
 49
-3.1749999999999998
 74
0
  0
LTYPE
  5
35
100
AcDbSymbolTableRecord
100
AcDbLinetypeTableRecord
  2
DIVIDE
 70
0
  3
Divide ____ . . ____ . . ____ . . ____ . . ____
 72
65
 73
6
 40
31.75
 49
12.699999999999999
 74
0
 49
-6.3499999999999996
 74
0
 49
0.0
 74
0
 49
-6.3499999999999996
 74
0
 49
0.0
 74
0
 49
-6.3499999999999996
 74
0
  0
LTYPE
  5
36
100
AcDbSymbolTableRecord
100
AcDbLinetypeTableRecord
  2
DASHDOT
 70
0
  3
Dash dot __ . __ . __ . __ . __ . __ . __ . __
 72
65
 73
4
 40
25.399999999999999
 49
12.699999999999999
 74
0
 49
-6.3499999999999996
 74
0
 49
0.0
 74
0
 49
-6.3499999999999996
 74
0
  0
LTYPE
  5
37
100
AcDbSymbolTableRecord
100
AcDbLinetypeTableRecord
  2
BORDER
 70
0
  3
Border __ __ . __ __ . __ __ . __ __ . __ __ .
 72
65
 73
6
 40
44.450000000000003
 49
12.699999999999999
 74
0
 49
-6.3499999999999996
 74
0
 49
12.699999999999999
 74
0
 49
-6.3499999999999996
 74
0
 49
0.0
 74
0
 49
-6.3499999999999996
 74
0
  0
LTYPE
  5
38
100
AcDbSymbolTableRecord
100
AcDbLinetypeTableRecord
  2
DASHDOTX2
 70
0
  3
Dash dot (2x) ____  .  ____  .  ____  .  ___
 72
65
 73
4
 40
50.799999999999997
 49
25.399999999999999
 74
0
 49
-12.699999999999999
 74
0
 49
0.0
 74
0
 49
-12.699999999999999
 74
0
  0
LTYPE
  5
39
100
AcDbSymbolTableRecord
100
AcDbLinetypeTableRecord
  2
CENTERX2
 70
0
  3
Center (2x) ________  __  ________  __  _____
 72
65
 73
4
 40
101.59999999999999
 49
63.5
 74
0
 49
-12.699999999999999
 74
0
 49
12.699999999999999
 74
0
 49
-12.699999999999999
 74
0
  0
LTYPE
  5
3A
100
AcDbSymbolTableRecord
100
AcDbLinetypeTableRecord
  2
BORDER2
 70
0
  3
Border (.5x) __.__.__.__.__.__.__.__.__.__.__.
 72
65
 73
6
 40
22.225000000000001
 49
6.3499999999999996
 74
0
 49
-3.1749999999999998
 74
0
 49
6.3499999999999996
 74
0
 49
-3.1749999999999998
 74
0
 49
0.0
 74
0
 49
-3.1749999999999998
 74
0
  0
LTYPE
  5
3B
100
AcDbSymbolTableRecord
100
AcDbLinetypeTableRecord
  2
BORDERX2
 70
0
  3
Border (2x) ____  ____  .  ____  ____  .  ___
 72
65
 73
6
 40
88.900000000000006
 49
25.399999999999999
 74
0
 49
-12.699999999999999
 74
0
 49
25.399999999999999
 74
0
 49
-12.699999999999999
 74
0
 49
0.0
 74
0
 49
-12.699999999999999
 74
0
  0
LTYPE
  5
14
100
AcDbSymbolTableRecord
100
AcDbLinetypeTableRecord
  2
BYBLOCK
 70
0
  3

 72
65
 73
0
 40
0.0
  0
LTYPE
  5
15
100
AcDbSymbolTableRecord
100
AcDbLinetypeTableRecord
  2
BYLAYER
 70
0
  3

 72
65
 73
0
 40
0.0
  0
LTYPE
  5
3C
100
AcDbSymbolTableRecord
100
AcDbLinetypeTableRecord
  2
DASHED2
 70
0
  3
Dashed (.5x) _ _ _ _ _ _ _ _ _ _ _ _ _ _ _ _ _
 72
65
 73
2
 40
9.5250000000000004
 49
6.3499999999999996
 74
0
 49
-3.1749999999999998
 74
0
  0
LTYPE
  5
3D
100
AcDbSymbolTableRecord
100
AcDbLinetypeTableRecord
  2
CENTER
 70
0
  3
Center ____ _ ____ _ ____ _ ____ _ ____ _ ____
 72
65
 73
4
 40
50.799999999999997
 49
31.75
 74
0
 49
-6.3499999999999996
 74
0
 49
6.3499999999999996
 74
0
 49
-6.3499999999999996
 74
0
  0
LTYPE
  5
3E
100
AcDbSymbolTableRecord
100
AcDbLinetypeTableRecord
  2
DIVIDE2
 70
0
  3
Divide (.5x) __..__..__..__..__..__..__..__.._
 72
65
 73
6
 40
15.875
 49
6.3499999999999996
 74
0
 49
-3.1749999999999998
 74
0
 49
0.0
 74
0
 49
-3.1749999999999998
 74
0
 49
0.0
 74
0
 49
-3.1749999999999998
 74
0
  0
LTYPE
  5
3F
100
AcDbSymbolTableRecord
100
AcDbLinetypeTableRecord
  2
DASHED
 70
0
  3
Dashed __ __ __ __ __ __ __ __ __ __ __ __ __ _
 72
65
 73
2
 40
19.050000000000001
 49
12.699999999999999
 74
0
 49
-6.3499999999999996
 74
0
  0
LTYPE
  5
40
100
AcDbSymbolTableRecord
100
AcDbLinetypeTableRecord
  2
DOTX2
 70
0
  3
Dot (2x) .  .  .  .  .  .  .  .  .  .  .  .  .
 72
65
 73
2
 40
12.699999999999999
 49
0.0
 74
0
 49
-12.699999999999999
 74
0
  0
LTYPE
  5
41
100
AcDbSymbolTableRecord
100
AcDbLinetypeTableRecord
  2
DASHEDX2
 70
0
  3
Dashed (2x) ____  ____  ____  ____  ____  ___
 72
65
 73
2
 40
38.100000000000001
 49
25.399999999999999
 74
0
 49
-12.699999999999999
 74
0
  0
LTYPE
  5
42
100
AcDbSymbolTableRecord
100
AcDbLinetypeTableRecord
  2
DOT
 70
0
  3
Dot . . . . . . . . . . . . . . . . . . . . . .
 72
65
 73
2
 40
6.3499999999999996
 49
0.0
 74
0
 49
-6.3499999999999996
 74
0
  0
ENDTAB
  0
TABLE
  2
LAYER
  5
2
100
AcDbSymbolTable
 70
3
  0
LAYER
  5
10
100
AcDbSymbolTableRecord
100
AcDbLayerTableRecord
  2
0
 70
0
 62
7
420
16777215
  6
CONTINUOUS
370
25
390
F
  0
LAYER
  5
43
100
AcDbSymbolTableRecord
100
AcDbLayerTableRecord
  2
1
 70
0
 62
2
420
16776960
  6
CONTINUOUS
370
25
390
F
  0
LAYER
  5
44
100
AcDbSymbolTableRecord
100
AcDbLayerTableRecord
  2
2
 70
0
 62
1
420
16711680
  6
CONTINUOUS
370
25
390
F
  0
ENDTAB
  0
TABLE
  2
STYLE
  5
3
100
AcDbSymbolTable
 70
1
  0
STYLE
  5
45
100
AcDbSymbolTableRecord
100
AcDbTextStyleTableRecord
  2
Standard
 70
0
 40
0.0
 41
1.0
 50
0.0
 71
0
 42
2.5
  3

  4

1001
ACAD
1000
txt
1071
0
  0
ENDTAB
  0
TABLE
  2
VIEW
  5
6
100
AcDbSymbolTable
 70
0
  0
ENDTAB
  0
TABLE
  2
UCS
  5
7
100
AcDbSymbolTable
 70
0
  0
ENDTAB
  0
TABLE
  2
APPID
  5
9
100
AcDbSymbolTable
 70
1
  0
APPID
  5
12
100
AcDbSymbolTableRecord
100
AcDbRegAppTableRecord
  2
ACAD
 70
0
  0
APPID
  5
46
100
AcDbSymbolTableRecord
100
AcDbRegAppTableRecord
  2
QCAD
 70
0
  0
ENDTAB
  0
TABLE
  2
DIMSTYLE
  5
A
100
AcDbSymbolTable
 70
1
100
AcDbDimStyleTable
 71
0
  0
DIMSTYLE
105
27
100
AcDbSymbolTableRecord
100
AcDbDimStyleTableRecord
  2
Standard
 41
2.5
 42
0.625
 43
3.75
 44
1.25
 70
0
 73
0
 74
0
 77
1
 78
8
140
2.5
141
2.5
143
0.03937007874016
147
0.625
171
3
172
1
271
2
272
2
274
3
278
44
283
0
284
8
340
45
  0
ENDTAB
  0
TABLE
  2
BLOCK_RECORD
  5
1
100
AcDbSymbolTable
 70
1
  0
BLOCK_RECORD
  5
1F
100
AcDbSymbolTableRecord
100
AcDbBlockTableRecord
  2
*Model_Space
340
22
  0
BLOCK_RECORD
  5
1B
100
AcDbSymbolTableRecord
100
AcDbBlockTableRecord
  2
*Paper_Space
340
1E
  0
BLOCK_RECORD
  5
23
100
AcDbSymbolTableRecord
100
AcDbBlockTableRecord
  2
*Paper_Space0
340
26
  0
ENDTAB
  0
ENDSEC
  0
SECTION
  2
BLOCKS
  0
BLOCK
  5
20
100
AcDbEntity
  8
0
100
AcDbBlockBegin
  2
*Model_Space
 70
0
 10
0.0
 20
0.0
 30
0.0
  3
*Model_Space
  1

  0
ENDBLK
  5
21
100
AcDbEntity
  8
0
100
AcDbBlockEnd
  0
BLOCK
  5
1C
100
AcDbEntity
 67
1
  8
0
100
AcDbBlockBegin
  2
*Paper_Space
 70
0
 10
0.0
 20
0.0
 30
0.0
  3
*Paper_Space
  1

  0
ENDBLK
  5
1D
100
AcDbEntity
 67
1
  8
0
100
AcDbBlockEnd
  0
BLOCK
  5
24
100
AcDbEntity
  8
0
100
AcDbBlockBegin
  2
*Paper_Space0
 70
0
 10
0.0
 20
0.0
 30
0.0
  3
*Paper_Space0
  1

  0
ENDBLK
  5
25
100
AcDbEntity
  8
0
100
AcDbBlockEnd
  0
ENDSEC
  0
SECTION
  2
ENTITIES
  0
LINE
  5
47
100
AcDbEntity
100
AcDbLine
  8
1
 62
256
370
-1
  6
BYLAYER
 10
-123.74368670764582
 20
-123.74368670764579
 30
0.0
 11
123.74368670764578
 21
123.74368670764579
 31
0.0
  0
LINE
  5
48
100
AcDbEntity
100
AcDbLine
  8
1
 62
256
370
-1
  6
BYLAYER
 10
-123.74368670764585
 20
123.74368670764584
 30
0.0
 11
123.74368670764596
 21
-123.74368670764592
 31
0.0
  0
LINE
  5
49
100
AcDbEntity
100
AcDbLine
  8
1
 62
256
370
-1
  6
BYLAYER
 10
-141.42135623730951
 20
0.0
 30
0.0
 11
141.42135623730951
 21
0.0
 31
0.0
  0
LINE
  5
4A
100
AcDbEntity
100
AcDbLine
  8
1
 62
256
370
-1
  6
BYLAYER
 10
-0.000000000000008
 20
-141.42135623730951
 30
0.0
 11
0.000000000000008
 21
141.42135623730951
 31
0.0
  0
CIRCLE
  5
4B
100
AcDbEntity
100
AcDbCircle
  8
2
 62
256
370
-1
  6
BYLAYER
 10
-70.710678118654741
 20
-70.710678118654727
 30
0.0
 40
8.8000000000000007
  0
CIRCLE
  5
4C
100
AcDbEntity
100
AcDbCircle
  8
2
 62
256
370
-1
  6
BYLAYER
 10
-70.710678118654769
 20
70.710678118654755
 30
0.0
 40
8.8000000000000007
  0
CIRCLE
  5
4D
100
AcDbEntity
100
AcDbCircle
  8
2
 62
256
370
-1
  6
BYLAYER
 10
70.710678118654769
 20
70.710678118654755
 30
0.0
 40
8.8000000000000007
  0
CIRCLE
  5
4E
100
AcDbEntity
100
AcDbCircle
  8
2
 62
256
370
-1
  6
BYLAYER
 10
70.710678118654755
 20
-70.710678118654727
 30
0.0
 40
8.8000000000000007
  0
CIRCLE
  5
4F
100
AcDbEntity
100
AcDbCircle
  8
2
 62
256
370
-1
  6
BYLAYER
 10
70.710678118654769
 20
70.710678118654755
 30
0.0
 40
63.5
  0
CIRCLE
  5
50
100
AcDbEntity
100
AcDbCircle
  8
2
 62
256
370
-1
  6
BYLAYER
 10
70.710678118654755
 20
-70.710678118654727
 30
0.0
 40
63.5
  0
CIRCLE
  5
51
100
AcDbEntity
100
AcDbCircle
  8
2
 62
256
370
-1
  6
BYLAYER
 10
-70.710678118654755
 20
70.710678118654755
 30
0.0
 40
63.5
  0
CIRCLE
  5
52
100
AcDbEntity
100
AcDbCircle
  8
2
 62
256
370
-1
  6
BYLAYER
 10
-70.710678118654741
 20
-70.710678118654727
 30
0.0
 40
63.5
  0
LINE
  5
53
100
AcDbEntity
100
AcDbLine
  8
2
 62
256
370
-1
  6
BYLAYER
 10
19.999999999999996
 20
-20.0
 30
0.0
 11
20.0
 21
20.0
 31
0.0
  0
LINE
  5
54
100
AcDbEntity
100
AcDbLine
  8
2
 62
256
370
-1
  6
BYLAYER
 10
-20.000000000000004
 20
-20.0
 30
0.0
 11
-20.0
 21
20.0
 31
0.0
  0
LINE
  5
55
100
AcDbEntity
100
AcDbLine
  8
2
 62
256
370
-1
  6
BYLAYER
 10
-20.0
 20
20.0
 30
0.0
 11
20.0
 21
20.0
 31
0.0
  0
LINE
  5
56
100
AcDbEntity
100
AcDbLine
  8
2
 62
256
370
-1
  6
BYLAYER
 10
-20.0
 20
-20.0
 30
0.0
 11
20.0
 21
-20.0
 31
0.0
  0
CIRCLE
  5
57
100
AcDbEntity
100
AcDbCircle
  8
1
 62
256
370
-1
  6
BYLAYER
 10
-70.710678118654755
 20
70.710678118654755
 30
0.0
 40
6.0
  0
CIRCLE
  5
58
100
AcDbEntity
100
AcDbCircle
  8
1
 62
256
370
-1
  6
BYLAYER
 10
70.710678118654769
 20
70.710678118654755
 30
0.0
 40
6.0
  0
CIRCLE
  5
59
100
AcDbEntity
100
AcDbCircle
  8
1
 62
256
370
-1
  6
BYLAYER
 10
70.710678118654755
 20
-70.710678118654727
 30
0.0
 40
6.0
  0
CIRCLE
  5
5A
100
AcDbEntity
100
AcDbCircle
  8
1
 62
256
370
-1
  6
BYLAYER
 10
-70.710678118654741
 20
-70.710678118654727
 30
0.0
 40
6.0
  0
LINE
  5
5B
100
AcDbEntity
100
AcDbLine
  8
1
 62
256
370
-1
  6
BYLAYER
 10
-77.074639149333677
 20
64.346717087975833
 30
0.0
 11
-64.346717087975833
 21
77.074639149333677
 31
0.0
  0
LINE
  5
5C
100
AcDbEntity
100
AcDbLine
  8
1
 62
256
370
-1
  6
BYLAYER
 10
64.346717087975833
 20
-77.074639149333649
 30
0.0
 11
77.074639149333677
 21
-64.346717087975804
 31
0.0
  0
LINE
  5
5D
100
AcDbEntity
100
AcDbLine
  8
1
 62
256
370
-1
  6
BYLAYER
 10
64.346717087975847
 20
77.074639149333677
 30
0.0
 11
77.074639149333692
 21
64.346717087975847
 31
0.0
  0
LINE
  5
5E
100
AcDbEntity
100
AcDbLine
  8
1
 62
256
370
-1
  6
BYLAYER
 10
-77.074639149333649
 20
-64.34671708797579
 30
0.0
 11
-64.346717087975819
 21
-77.074639149333649
 31
0.0
  0
CIRCLE
  5
5F
100
AcDbEntity
100
AcDbCircle
  8
0
 62
256
370
-1
  6
BYLAYER
 10
-70.710678118654769
 20
70.710678118654755
 30
0.0
 40
3.0
  0
CIRCLE
  5
60
100
AcDbEntity
100
AcDbCircle
  8
0
 62
256
370
-1
  6
BYLAYER
 10
70.710678118654769
 20
70.710678118654755
 30
0.0
 40
3.0
  0
CIRCLE
  5
61
100
AcDbEntity
100
AcDbCircle
  8
0
 62
256
370
-1
  6
BYLAYER
 10
70.710678118654755
 20
-70.710678118654741
 30
0.0
 40
3.0
  0
CIRCLE
  5
62
100
AcDbEntity
100
AcDbCircle
  8
0
 62
256
370
-1
  6
BYLAYER
 10
-70.710678118654741
 20
-70.710678118654727
 30
0.0
 40
3.0
  0
LINE
  5
63
100
AcDbEntity
100
AcDbLine
  8
0
 62
256
370
-1
  6
BYLAYER
 10
23.999999999999996
 20
-44.499999999999993
 30
0.0
 11
24.0
 21
44.5
 31
0.0
  0
LINE
  5
64
100
AcDbEntity
100
AcDbLine
  8
0
 62
256
370
-1
  6
BYLAYER
 10
-24.000000000000004
 20
-44.499999999999993
 30
0.0
 11
-24.0
 21
44.500000000000007
 31
0.0
  0
LINE
  5
65
100
AcDbEntity
100
AcDbLine
  8
1
 62
256
370
-1
  6
BYLAYER
 10
17.5
 20
-17.5
 30
0.0
 11
17.5
 21
17.499999999999993
 31
0.0
  0
LINE
  5
66
100
AcDbEntity
100
AcDbLine
  8
1
 62
256
370
-1
  6
BYLAYER
 10
-17.5
 20
-17.5
 30
0.0
 11
-17.5
 21
17.499999999999993
 31
0.0
  0
LINE
  5
67
100
AcDbEntity
100
AcDbLine
  8
1
 62
256
370
-1
  6
BYLAYER
 10
-17.5
 20
17.5
 30
0.0
 11
17.499999999999993
 21
17.5
 31
0.0
  0
LINE
  5
68
100
AcDbEntity
100
AcDbLine
  8
1
 62
256
370
-1
  6
BYLAYER
 10
-17.5
 20
-17.5
 30
0.0
 11
17.499999999999993
 21
-17.5
 31
0.0
  0
CIRCLE
  5
69
100
AcDbEntity
100
AcDbCircle
  8
0
 62
256
370
-1
  6
BYLAYER
 10
-17.499999999999993
 20
17.499999999999996
 30
0.0
 40
1.5
  0
CIRCLE
  5
6A
100
AcDbEntity
100
AcDbCircle
  8
0
 62
256
370
-1
  6
BYLAYER
 10
17.5
 20
17.499999999999996
 30
0.0
 40
1.5
  0
CIRCLE
  5
6B
100
AcDbEntity
100
AcDbCircle
  8
0
 62
256
370
-1
  6
BYLAYER
 10
-17.5
 20
-17.499999999999996
 30
0.0
 40
1.5
  0
CIRCLE
  5
6C
100
AcDbEntity
100
AcDbCircle
  8
0
 62
256
370
-1
  6
BYLAYER
 10
17.500000000000014
 20
-17.499999999999996
 30
0.0
 40
1.5
  0
LINE
  5
6D
100
AcDbEntity
100
AcDbLine
  8
0
 62
256
370
-1
  6
BYLAYER
 10
-71.064231509247989
 20
-61.871843353822875
 30
0.0
 11
-14.656854249492632
 21
-5.4644660940675251
 31
0.0
  0
LINE
  5
6E
100
AcDbEntity
100
AcDbLine
  8
0
 62
256
370
-1
  6
BYLAYER
 10
-61.871843353822911
 20
-71.064231509248003
 30
0.0
 11
-5.4644660940675251
 21
-14.656854249492618
 31
0.0
  0
LINE
  5
6F
100
AcDbEntity
100
AcDbLine
  8
0
 62
256
370
-1
  6
BYLAYER
 10
-61.871843353822911
 20
71.064231509248017
 30
0.0
 11
-5.4644660940671272
 21
14.656854249492248
 31
0.0
  0
LINE
  5
70
100
AcDbEntity
100
AcDbLine
  8
0
 62
256
370
-1
  6
BYLAYER
 10
-71.064231509248003
 20
61.871843353822911
 30
0.0
 11
-14.656854249492234
 21
5.4644660940671415
 31
0.0
  0
LINE
  5
71
100
AcDbEntity
100
AcDbLine
  8
0
 62
256
370
-1
  6
BYLAYER
 10
-66.821590822128726
 20
-61.871843353822868
 30
0.0
 11
-10.414213562373362
 21
-5.464466094067518
 31
0.0
  0
LINE
  5
72
100
AcDbEntity
100
AcDbLine
  8
0
 62
256
370
-1
  6
BYLAYER
 10
-61.871843353822896
 20
-66.821590822128726
 30
0.0
 11
-5.464466094067518
 21
-10.414213562373348
 31
0.0
  0
LINE
  5
73
100
AcDbEntity
100
AcDbLine
  8
0
 62
256
370
-1
  6
BYLAYER
 10
-61.871843353822896
 20
66.821590822128741
 30
0.0
 11
-5.4644660940671201
 21
10.414213562372979
 31
0.0
  0
LINE
  5
74
100
AcDbEntity
100
AcDbLine
  8
0
 62
256
370
-1
  6
BYLAYER
 10
-66.821590822128741
 20
61.871843353822911
 30
0.0
 11
-10.414213562372964
 21
5.4644660940671343
 31
0.0
  0
LINE
  5
75
100
AcDbEntity
100
AcDbLine
  8
0
 62
256
370
-1
  6
BYLAYER
 10
-20.999999999999993
 20
47.5
 30
0.0
 11
20.999999999999996
 21
47.5
 31
0.0
  0
LINE
  5
76
100
AcDbEntity
100
AcDbLine
  8
0
 62
256
370
-1
  6
BYLAYER
 10
-20.999999999999996
 20
-47.5
 30
0.0
 11
20.999999999999989
 21
-47.5
 31
0.0
  0
LINE
  5
77
100
AcDbEntity
100
AcDbLine
  8
0
 62
256
370
-1
  6
BYLAYER
 10
5.4644660940665011
 20
14.656854249491605
 30
0.0
 11
61.871843353822925
 21
71.064231509248017
 31
0.0
  0
LINE
  5
78
100
AcDbEntity
100
AcDbLine
  8
0
 62
256
370
-1
  6
BYLAYER
 10
14.656854249491609
 20
5.4644660940665002
 30
0.0
 11
71.064231509248017
 21
61.871843353822904
 31
0.0
  0
LINE
  5
79
100
AcDbEntity
100
AcDbLine
  8
0
 62
256
370
-1
  6
BYLAYER
 10
5.4644660940665233
 20
10.414213562372366
 30
0.0
 11
61.871843353822918
 21
66.821590822128755
 31
0.0
  0
LINE
  5
7A
100
AcDbEntity
100
AcDbLine
  8
0
 62
256
370
-1
  6
BYLAYER
 10
10.414213562372368
 20
5.4644660940665224
 30
0.0
 11
66.821590822128755
 21
61.871843353822911
 31
0.0
  0
LINE
  5
7B
100
AcDbEntity
100
AcDbLine
  8
0
 62
256
370
-1
  6
BYLAYER
 10
14.656854249491648
 20
-5.4644660940665251
 30
0.0
 11
71.064231509248017
 21
-61.871843353822882
 31
0.0
  0
LINE
  5
7C
100
AcDbEntity
100
AcDbLine
  8
0
 62
256
370
-1
  6
BYLAYER
 10
10.414213562372382
 20
-5.4644660940665224
 30
0.0
 11
66.821590822128741
 21
-61.871843353822861
 31
0.0
  0
LINE
  5
7D
100
AcDbEntity
100
AcDbLine
  8
0
 62
256
370
-1
  6
BYLAYER
 10
5.4644660940665348
 20
-10.414213562372364
 30
0.0
 11
61.871843353822889
 21
-66.821590822128698
 31
0.0
  0
LINE
  5
7E
100
AcDbEntity
100
AcDbLine
  8
0
 62
256
370
-1
  6
BYLAYER
 10
5.4644660940665366
 20
-14.656854249491628
 30
0.0
 11
61.871843353822911
 21
-71.064231509247989
 31
0.0
  0
CIRCLE
  5
7F
100
AcDbEntity
100
AcDbCircle
  8
2
 62
256
370
-1
  6
BYLAYER
 10
17.5
 20
17.5
 30
0.0
 40
3.0
  0
CIRCLE
  5
80
100
AcDbEntity
100
AcDbCircle
  8
2
 62
256
370
-1
  6
BYLAYER
 10
17.500000000000014
 20
-17.5
 30
0.0
 40
3.0
  0
CIRCLE
  5
81
100
AcDbEntity
100
AcDbCircle
  8
2
 62
256
370
-1
  6
BYLAYER
 10
-17.5
 20
-17.5
 30
0.0
 40
3.0
  0
CIRCLE
  5
82
100
AcDbEntity
100
AcDbCircle
  8
2
 62
256
370
-1
  6
BYLAYER
 10
-17.5
 20
17.5
 30
0.0
 40
3.0
  0
LINE
  5
83
100
AcDbEntity
100
AcDbLine
  8
2
 62
256
370
-1
  6
BYLAYER
 10
-21.000000000000004
 20
-45.5
 30
0.0
 11
-21.0
 21
-21.5
 31
0.0
  0
LINE
  5
84
100
AcDbEntity
100
AcDbLine
  8
2
 62
256
370
-1
  6
BYLAYER
 10
21.0
 20
-45.5
 30
0.0
 11
21.0
 21
-21.499999999999986
 31
0.0
  0
LINE
  5
85
100
AcDbEntity
100
AcDbLine
  8
2
 62
256
370
-1
  6
BYLAYER
 10
-21.0
 20
21.5
 30
0.0
 11
21.0
 21
21.5
 31
0.0
  0
LINE
  5
86
100
AcDbEntity
100
AcDbLine
  8
2
 62
256
370
-1
  6
BYLAYER
 10
-21.0
 20
45.5
 30
0.0
 11
21.0
 21
45.5
 31
0.0
  0
LINE
  5
87
100
AcDbEntity
100
AcDbLine
  8
2
 62
256
370
-1
  6
BYLAYER
 10
-21.0
 20
-21.5
 30
0.0
 11
21.0
 21
-21.5
 31
0.0
  0
LINE
  5
88
100
AcDbEntity
100
AcDbLine
  8
2
 62
256
370
-1
  6
BYLAYER
 10
-21.000000000000004
 20
-45.5
 30
0.0
 11
20.999999999999993
 21
-45.5
 31
0.0
  0
LINE
  5
89
100
AcDbEntity
100
AcDbLine
  8
2
 62
256
370
-1
  6
BYLAYER
 10
-21.0
 20
21.5
 30
0.0
 11
-20.999999999999996
 21
45.500000000000007
 31
0.0
  0
LINE
  5
8A
100
AcDbEntity
100
AcDbLine
  8
2
 62
256
370
-1
  6
BYLAYER
 10
21.0
 20
21.5
 30
0.0
 11
21.000000000000004
 21
45.500000000000007
 31
0.0
  0
LINE
  5
8B
100
AcDbEntity
100
AcDbLine
  8
0
 62
256
370
-1
  6
BYLAYER
 10
-79.549512883486557
 20
-66.821590822128712
 30
0.0
 11
-74.599765415180727
 21
-61.871843353822875
 31
0.0
  0
LINE
  5
8C
100
AcDbEntity
100
AcDbLine
  8
0
 62
256
370
-1
  6
BYLAYER
 10
-66.821590822128741
 20
-79.549512883486571
 30
0.0
 11
-61.871843353822911
 21
-74.599765415180741
 31
0.0
  0
LINE
  5
8D
100
AcDbEntity
100
AcDbLine
  8
0
 62
256
370
-1
  6
BYLAYER
 10
74.599765415180798
 20
79.549512883486599
 30
0.0
 11
79.549512883486614
 21
74.599765415180784
 31
0.0
  0
LINE
  5
8E
100
AcDbEntity
100
AcDbLine
  8
1
 62
256
370
-1
  6
BYLAYER
 10
57.982756057296953
 20
70.710678118654769
 30
0.0
 11
83.438600180012614
 21
70.710678118654769
 31
0.0
  0
LINE
  5
8F
100
AcDbEntity
100
AcDbLine
  8
1
 62
256
370
-1
  6
BYLAYER
 10
70.710678118654798
 20
57.982756057296946
 30
0.0
 11
70.710678118654798
 21
83.438600180012585
 31
0.0
  0
CIRCLE
  5
90
100
AcDbEntity
100
AcDbCircle
  8
0
 62
256
370
-1
  6
BYLAYER
 10
70.710678118654798
 20
76.710678118654755
 30
0.0
 40
1.0
  0
CIRCLE
  5
91
100
AcDbEntity
100
AcDbCircle
  8
0
 62
256
370
-1
  6
BYLAYER
 10
76.710678118654769
 20
70.710678118654769
 30
0.0
 40
1.0
  0
CIRCLE
  5
92
100
AcDbEntity
100
AcDbCircle
  8
0
 62
256
370
-1
  6
BYLAYER
 10
70.710678118654798
 20
64.710678118654755
 30
0.0
 40
1.0
  0
CIRCLE
  5
93
100
AcDbEntity
100
AcDbCircle
  8
0
 62
256
370
-1
  6
BYLAYER
 10
64.710678118654769
 20
70.710678118654769
 30
0.0
 40
1.0
  0
LINE
  5
94
100
AcDbEntity
100
AcDbLine
  8
0
 62
256
370
-1
  6
BYLAYER
 10
61.871843353822939
 20
74.599765415180769
 30
0.0
 11
66.821590822128769
 21
79.549512883486614
 31
0.0
  0
LINE
  5
95
100
AcDbEntity
100
AcDbLine
  8
0
 62
256
370
-1
  6
BYLAYER
 10
74.599765415180784
 20
61.871843353822932
 30
0.0
 11
79.549512883486614
 21
66.821590822128755
 31
0.0
  0
LINE
  5
96
100
AcDbEntity
100
AcDbLine
  8
1
 62
256
370
-1
  6
BYLAYER
 10
66.821590822128769
 20
79.549512883486599
 30
0.0
 11
79.549512883486614
 21
66.821590822128769
 31
0.0
  0
LINE
  5
97
100
AcDbEntity
100
AcDbLine
  8
1
 62
256
370
-1
  6
BYLAYER
 10
61.871843353822932
 20
74.599765415180755
 30
0.0
 11
74.599765415180784
 21
61.871843353822932
 31
0.0
  0
LINE
  5
98
100
AcDbEntity
100
AcDbLine
  8
0
 62
256
370
-1
  6
BYLAYER
 10
66.821590822128769
 20
79.549512883486585
 30
0.0
 11
74.599765415180784
 21
79.549512883486614
 31
0.0
  0
LINE
  5
99
100
AcDbEntity
100
AcDbLine
  8
0
 62
256
370
-1
  6
BYLAYER
 10
79.549512883486628
 20
74.599765415180769
 30
0.0
 11
79.549512883486599
 21
66.821590822128769
 31
0.0
  0
LINE
  5
9A
100
AcDbEntity
100
AcDbLine
  8
0
 62
256
370
-1
  6
BYLAYER
 10
61.871843353822932
 20
74.599765415180769
 30
0.0
 11
61.871843353822925
 21
66.821590822128755
 31
0.0
  0
LINE
  5
9B
100
AcDbEntity
100
AcDbLine
  8
0
 62
256
370
-1
  6
BYLAYER
 10
74.599765415180784
 20
61.871843353822932
 30
0.0
 11
66.821590822128769
 21
61.871843353822911
 31
0.0
  0
LINE
  5
9C
100
AcDbEntity
100
AcDbLine
  8
1
 62
256
370
-1
  6
BYLAYER
 10
-9.0
 20
-9.0
 30
0.0
 11
-8.9999999999999982
 21
9.0
 31
0.0
  0
LINE
  5
9D
100
AcDbEntity
100
AcDbLine
  8
1
 62
256
370
-1
  6
BYLAYER
 10
8.9999999999999982
 20
-9.0
 30
0.0
 11
9.0
 21
9.0
 31
0.0
  0
LINE
  5
9E
100
AcDbEntity
100
AcDbLine
  8
1
 62
256
370
-1
  6
BYLAYER
 10
-9.0
 20
9.0
 30
0.0
 11
9.0
 21
9.0
 31
0.0
  0
LINE
  5
9F
100
AcDbEntity
100
AcDbLine
  8
1
 62
256
370
-1
  6
BYLAYER
 10
-9.0
 20
-9.0
 30
0.0
 11
9.0
 21
-9.0
 31
0.0
  0
CIRCLE
  5
A0
100
AcDbEntity
100
AcDbCircle
  8
0
 62
256
370
-1
  6
BYLAYER
 10
9.0000000000000036
 20
9.0
 30
0.0
 40
1.5
  0
CIRCLE
  5
A1
100
AcDbEntity
100
AcDbCircle
  8
0
 62
256
370
-1
  6
BYLAYER
 10
9.0000000000000124
 20
-9.0
 30
0.0
 40
1.5
  0
CIRCLE
  5
A2
100
AcDbEntity
100
AcDbCircle
  8
0
 62
256
370
-1
  6
BYLAYER
 10
-9.0000000000000036
 20
-9.0
 30
0.0
 40
1.5
  0
CIRCLE
  5
A3
100
AcDbEntity
100
AcDbCircle
  8
0
 62
256
370
-1
  6
BYLAYER
 10
-8.9999999999999893
 20
9.0
 30
0.0
 40
1.5
  0
LINE
  5
A4
100
AcDbEntity
100
AcDbLine
  8
0
 62
256
370
-1
  6
BYLAYER
 10
5.4644660940665375
 20
7.5857864376261688
 30
0.0
 11
7.585786437626183
 21
5.4644660940665233
 31
0.0
  0
LINE
  5
A5
100
AcDbEntity
100
AcDbLine
  8
1
 62
256
370
-1
  6
BYLAYER
 10
-78.135299321113479
 20
-76.013978977553833
 30
0.0
 11
76.01397897755389
 21
78.135299321113507
 31
0.0
  0
LINE
  5
A6
100
AcDbEntity
100
AcDbLine
  8
1
 62
256
370
-1
  6
BYLAYER
 10
-76.013978977553847
 20
-78.135299321113479
 30
0.0
 11
78.135299321113521
 21
76.013978977553876
 31
0.0
  0
LINE
  5
A7
100
AcDbEntity
100
AcDbLine
  8
0
 62
256
370
-1
  6
BYLAYER
 10
7.5857864376261706
 20
5.4644660940665384
 30
0.0
 11
14.656854249491612
 21
5.4644660940665011
 31
0.0
  0
LINE
  5
A8
100
AcDbEntity
100
AcDbLine
  8
0
 62
256
370
-1
  6
BYLAYER
 10
5.4644660940665393
 20
7.5857864376261697
 30
0.0
 11
5.464466094066502
 21
14.656854249491609
 31
0.0
  0
LINE
  5
A9
100
AcDbEntity
100
AcDbLine
  8
1
 62
256
370
-1
  6
BYLAYER
 10
57.982756057296911
 20
-70.710678118654727
 30
0.0
 11
83.438600180012585
 21
-70.710678118654727
 31
0.0
  0
LINE
  5
AA
100
AcDbEntity
100
AcDbLine
  8
1
 62
256
370
-1
  6
BYLAYER
 10
-83.438600180012585
 20
-70.710678118654727
 30
0.0
 11
-57.982756057296882
 21
-70.710678118654727
 31
0.0
  0
LINE
  5
AB
100
AcDbEntity
100
AcDbLine
  8
1
 62
256
370
-1
  6
BYLAYER
 10
-83.4386001800126
 20
70.710678118654755
 30
0.0
 11
-57.982756057296911
 21
70.710678118654755
 31
0.0
  0
LINE
  5
AC
100
AcDbEntity
100
AcDbLine
  8
1
 62
256
370
-1
  6
BYLAYER
 10
70.710678118654755
 20
-83.438600180012557
 30
0.0
 11
70.710678118654755
 21
-57.982756057296882
 31
0.0
  0
LINE
  5
AD
100
AcDbEntity
100
AcDbLine
  8
1
 62
256
370
-1
  6
BYLAYER
 10
-70.710678118654741
 20
-83.438600180012571
 30
0.0
 11
-70.710678118654741
 21
-57.982756057296882
 31
0.0
  0
LINE
  5
AE
100
AcDbEntity
100
AcDbLine
  8
1
 62
256
370
-1
  6
BYLAYER
 10
-70.710678118654755
 20
57.982756057296911
 30
0.0
 11
-70.710678118654755
 21
83.4386001800126
 31
0.0
  0
CIRCLE
  5
AF
100
AcDbEntity
100
AcDbCircle
  8
0
 62
256
370
-1
  6
BYLAYER
 10
70.710678118654755
 20
-64.710678118654727
 30
0.0
 40
1.0
  0
CIRCLE
  5
B0
100
AcDbEntity
100
AcDbCircle
  8
0
 62
256
370
-1
  6
BYLAYER
 10
76.710678118654755
 20
-70.710678118654727
 30
0.0
 40
1.0
  0
CIRCLE
  5
B1
100
AcDbEntity
100
AcDbCircle
  8
0
 62
256
370
-1
  6
BYLAYER
 10
70.710678118654755
 20
-76.710678118654727
 30
0.0
 40
1.0
  0
CIRCLE
  5
B2
100
AcDbEntity
100
AcDbCircle
  8
0
 62
256
370
-1
  6
BYLAYER
 10
64.710678118654755
 20
-70.710678118654727
 30
0.0
 40
1.0
  0
CIRCLE
  5
B3
100
AcDbEntity
100
AcDbCircle
  8
0
 62
256
370
-1
  6
BYLAYER
 10
-64.710678118654741
 20
-70.710678118654727
 30
0.0
 40
1.0
  0
CIRCLE
  5
B4
100
AcDbEntity
100
AcDbCircle
  8
0
 62
256
370
-1
  6
BYLAYER
 10
-70.710678118654741
 20
-76.710678118654727
 30
0.0
 40
1.0
  0
CIRCLE
  5
B5
100
AcDbEntity
100
AcDbCircle
  8
0
 62
256
370
-1
  6
BYLAYER
 10
-76.710678118654741
 20
-70.710678118654727
 30
0.0
 40
1.0
  0
CIRCLE
  5
B6
100
AcDbEntity
100
AcDbCircle
  8
0
 62
256
370
-1
  6
BYLAYER
 10
-70.710678118654741
 20
-64.710678118654727
 30
0.0
 40
1.0
  0
CIRCLE
  5
B7
100
AcDbEntity
100
AcDbCircle
  8
0
 62
256
370
-1
  6
BYLAYER
 10
-70.710678118654755
 20
64.710678118654755
 30
0.0
 40
1.0
  0
CIRCLE
  5
B8
100
AcDbEntity
100
AcDbCircle
  8
0
 62
256
370
-1
  6
BYLAYER
 10
-76.710678118654755
 20
70.710678118654755
 30
0.0
 40
1.0
  0
CIRCLE
  5
B9
100
AcDbEntity
100
AcDbCircle
  8
0
 62
256
370
-1
  6
BYLAYER
 10
-70.710678118654755
 20
76.710678118654755
 30
0.0
 40
1.0
  0
CIRCLE
  5
BA
100
AcDbEntity
100
AcDbCircle
  8
0
 62
256
370
-1
  6
BYLAYER
 10
-64.710678118654755
 20
70.710678118654755
 30
0.0
 40
1.0
  0
LINE
  5
BB
100
AcDbEntity
100
AcDbLine
  8
0
 62
256
370
-1
  6
BYLAYER
 10
-66.821590822128755
 20
79.549512883486614
 30
0.0
 11
-61.871843353822911
 21
74.599765415180769
 31
0.0
  0
LINE
  5
BC
100
AcDbEntity
100
AcDbLine
  8
0
 62
256
370
-1
  6
BYLAYER
 10
-79.549512883486599
 20
66.821590822128769
 30
0.0
 11
-74.599765415180755
 21
61.871843353822925
 31
0.0
  0
LINE
  5
BD
100
AcDbEntity
100
AcDbLine
  8
0
 62
256
370
-1
  6
BYLAYER
 10
74.599765415180755
 20
-61.871843353822882
 30
0.0
 11
79.549512883486599
 21
-66.821590822128726
 31
0.0
  0
LINE
  5
BE
100
AcDbEntity
100
AcDbLine
  8
0
 62
256
370
-1
  6
BYLAYER
 10
61.871843353822911
 20
-74.599765415180727
 30
0.0
 11
66.821590822128755
 21
-79.549512883486571
 31
0.0
  0
LINE
  5
BF
100
AcDbEntity
100
AcDbLine
  8
1
 62
256
370
-1
  6
BYLAYER
 10
61.871843353822918
 20
-74.599765415180727
 30
0.0
 11
74.599765415180755
 21
-61.871843353822889
 31
0.0
  0
LINE
  5
C0
100
AcDbEntity
100
AcDbLine
  8
1
 62
256
370
-1
  6
BYLAYER
 10
66.821590822128755
 20
-79.549512883486571
 30
0.0
 11
79.549512883486599
 21
-66.821590822128726
 31
0.0
  0
LINE
  5
C1
100
AcDbEntity
100
AcDbLine
  8
1
 62
256
370
-1
  6
BYLAYER
 10
-79.549512883486571
 20
-66.821590822128698
 30
0.0
 11
-66.821590822128741
 21
-79.549512883486557
 31
0.0
  0
LINE
  5
C2
100
AcDbEntity
100
AcDbLine
  8
1
 62
256
370
-1
  6
BYLAYER
 10
-74.599765415180727
 20
-61.871843353822875
 30
0.0
 11
-61.871843353822896
 21
-74.599765415180741
 31
0.0
  0
LINE
  5
C3
100
AcDbEntity
100
AcDbLine
  8
1
 62
256
370
-1
  6
BYLAYER
 10
-79.549512883486599
 20
66.821590822128755
 30
0.0
 11
-66.821590822128755
 21
79.549512883486599
 31
0.0
  0
LINE
  5
C4
100
AcDbEntity
100
AcDbLine
  8
1
 62
256
370
-1
  6
BYLAYER
 10
-74.599765415180755
 20
61.871843353822918
 30
0.0
 11
-61.871843353822918
 21
74.599765415180755
 31
0.0
  0
LINE
  5
C5
100
AcDbEntity
100
AcDbLine
  8
1
 62
256
370
-1
  6
BYLAYER
 10
-76.013978977553862
 20
78.135299321113507
 30
0.0
 11
78.135299321113493
 21
-76.013978977553833
 31
0.0
  0
LINE
  5
C6
100
AcDbEntity
100
AcDbLine
  8
1
 62
256
370
-1
  6
BYLAYER
 10
-78.135299321113493
 20
76.013978977553876
 30
0.0
 11
76.013978977553862
 21
-78.135299321113465
 31
0.0
  0
LINE
  5
C7
100
AcDbEntity
100
AcDbLine
  8
0
 62
256
370
-1
  6
BYLAYER
 10
74.599765415180769
 20
-79.549512883486557
 30
0.0
 11
79.549512883486614
 21
-74.599765415180713
 31
0.0
  0
LINE
  5
C8
100
AcDbEntity
100
AcDbLine
  8
0
 62
256
370
-1
  6
BYLAYER
 10
-79.549512883486585
 20
-74.599765415180727
 30
0.0
 11
-74.599765415180741
 21
-79.549512883486585
 31
0.0
  0
LINE
  5
C9
100
AcDbEntity
100
AcDbLine
  8
0
 62
256
370
-1
  6
BYLAYER
 10
-79.549512883486614
 20
74.599765415180741
 30
0.0
 11
-74.599765415180741
 21
79.549512883486614
 31
0.0
  0
LINE
  5
CA
100
AcDbEntity
100
AcDbLine
  8
0
 62
256
370
-1
  6
BYLAYER
 10
79.549512883486599
 20
-66.821590822128726
 30
0.0
 11
79.549512883486599
 21
-74.599765415180727
 31
0.0
  0
LINE
  5
CB
100
AcDbEntity
100
AcDbLine
  8
0
 62
256
370
-1
  6
BYLAYER
 10
74.599765415180755
 20
-79.549512883486571
 30
0.0
 11
66.821590822128755
 21
-79.549512883486571
 31
0.0
  0
LINE
  5
CC
100
AcDbEntity
100
AcDbLine
  8
0
 62
256
370
-1
  6
BYLAYER
 10
-66.821590822128726
 20
-79.549512883486557
 30
0.0
 11
-74.599765415180755
 21
-79.549512883486585
 31
0.0
  0
LINE
  5
CD
100
AcDbEntity
100
AcDbLine
  8
0
 62
256
370
-1
  6
BYLAYER
 10
-79.549512883486585
 20
-74.599765415180741
 30
0.0
 11
-79.549512883486557
 21
-66.821590822128712
 31
0.0
  0
LINE
  5
CE
100
AcDbEntity
100
AcDbLine
  8
0
 62
256
370
-1
  6
BYLAYER
 10
-79.549512883486585
 20
66.821590822128769
 30
0.0
 11
-79.549512883486614
 21
74.599765415180769
 31
0.0
  0
LINE
  5
CF
100
AcDbEntity
100
AcDbLine
  8
0
 62
256
370
-1
  6
BYLAYER
 10
-74.599765415180755
 20
79.549512883486614
 30
0.0
 11
-66.821590822128755
 21
79.549512883486599
 31
0.0
  0
LINE
  5
D0
100
AcDbEntity
100
AcDbLine
  8
0
 62
256
370
-1
  6
BYLAYER
 10
74.599765415180755
 20
-61.871843353822882
 30
0.0
 11
66.821590822128755
 21
-61.871843353822875
 31
0.0
  0
LINE
  5
D1
100
AcDbEntity
100
AcDbLine
  8
0
 62
256
370
-1
  6
BYLAYER
 10
61.871843353822911
 20
-74.599765415180727
 30
0.0
 11
61.871843353822904
 21
-66.821590822128726
 31
0.0
  0
LINE
  5
D2
100
AcDbEntity
100
AcDbLine
  8
0
 62
256
370
-1
  6
BYLAYER
 10
-61.871843353822911
 20
-74.599765415180741
 30
0.0
 11
-61.871843353822889
 21
-66.821590822128726
 31
0.0
  0
LINE
  5
D3
100
AcDbEntity
100
AcDbLine
  8
0
 62
256
370
-1
  6
BYLAYER
 10
-74.599765415180727
 20
-61.871843353822882
 30
0.0
 11
-66.821590822128726
 21
-61.871843353822882
 31
0.0
  0
LINE
  5
D4
100
AcDbEntity
100
AcDbLine
  8
0
 62
256
370
-1
  6
BYLAYER
 10
-74.599765415180741
 20
61.871843353822918
 30
0.0
 11
-66.821590822128741
 21
61.871843353822904
 31
0.0
  0
LINE
  5
D5
100
AcDbEntity
100
AcDbLine
  8
0
 62
256
370
-1
  6
BYLAYER
 10
-61.871843353822904
 20
74.599765415180755
 30
0.0
 11
-61.871843353822896
 21
66.821590822128741
 31
0.0
  0
LINE
  5
D6
100
AcDbEntity
100
AcDbLine
  8
0
 62
256
370
-1
  6
BYLAYER
 10
5.4644660940665375
 20
-7.5857864376261546
 30
0.0
 11
7.5857864376261546
 21
-5.4644660940665375
 31
0.0
  0
LINE
  5
D7
100
AcDbEntity
100
AcDbLine
  8
0
 62
256
370
-1
  6
BYLAYER
 10
-7.5857864376267514
 20
5.4644660940671343
 30
0.0
 11
-5.4644660940671343
 21
7.5857864376267514
 31
0.0
  0
LINE
  5
D8
100
AcDbEntity
100
AcDbLine
  8
0
 62
256
370
-1
  6
BYLAYER
 10
-7.5857864376271635
 20
-5.464466094067518
 30
0.0
 11
-5.464466094067518
 21
-7.5857864376271635
 31
0.0
  0
LINE
  5
D9
100
AcDbEntity
100
AcDbLine
  8
0
 62
256
370
-1
  6
BYLAYER
 10
7.5857864376261661
 20
-5.4644660940665233
 30
0.0
 11
14.65685424949165
 21
-5.4644660940665233
 31
0.0
  0
LINE
  5
DA
100
AcDbEntity
100
AcDbLine
  8
0
 62
256
370
-1
  6
BYLAYER
 10
-14.656854249492634
 20
-5.4644660940675198
 30
0.0
 11
-7.5857864376271618
 21
-5.4644660940675198
 31
0.0
  0
LINE
  5
DB
100
AcDbEntity
100
AcDbLine
  8
0
 62
256
370
-1
  6
BYLAYER
 10
-14.656854249492227
 20
5.4644660940671326
 30
0.0
 11
-7.5857864376267514
 21
5.4644660940671326
 31
0.0
  0
LINE
  5
DC
100
AcDbEntity
100
AcDbLine
  8
0
 62
256
370
-1
  6
BYLAYER
 10
5.4644660940665348
 20
-14.65685424949163
 30
0.0
 11
5.4644660940665357
 21
-7.5857864376261563
 31
0.0
  0
LINE
  5
DD
100
AcDbEntity
100
AcDbLine
  8
0
 62
256
370
-1
  6
BYLAYER
 10
-5.464466094067526
 20
-14.656854249492612
 30
0.0
 11
-5.4644660940675251
 21
-7.5857864376271547
 31
0.0
  0
LINE
  5
DE
100
AcDbEntity
100
AcDbLine
  8
0
 62
256
370
-1
  6
BYLAYER
 10
-5.4644660940671201
 20
7.5857864376267647
 30
0.0
 11
-5.4644660940671193
 21
14.656854249492241
 31
0.0
  0
LINE
  5
DF
100
AcDbEntity
100
AcDbLine
  8
0
 62
256
370
-1
  6
BYLAYER
 10
21.000000000000004
 20
47.5
 30
0.0
 11
23.999999999999996
 21
44.5
 31
0.0
  0
LINE
  5
E0
100
AcDbEntity
100
AcDbLine
  8
0
 62
256
370
-1
  6
BYLAYER
 10
23.999999999999993
 20
-44.5
 30
0.0
 11
20.999999999999996
 21
-47.5
 31
0.0
  0
LINE
  5
E1
100
AcDbEntity
100
AcDbLine
  8
0
 62
256
370
-1
  6
BYLAYER
 10
-21.000000000000004
 20
-47.5
 30
0.0
 11
-24.000000000000007
 21
-44.5
 31
0.0
  0
LINE
  5
E2
100
AcDbEntity
100
AcDbLine
  8
0
 62
256
370
-1
  6
BYLAYER
 10
-24.000000000000004
 20
44.5
 30
0.0
 11
-20.999999999999996
 21
47.5
 31
0.0
  0
LINE
  5
E3
100
AcDbEntity
100
AcDbLine
  8
2
 62
256
370
-1
  6
BYLAYER
 10
29.355755609386613
 20
133.27880406351926
 30
0.0
 11
60.104076400856535
 21
60.10407640085657
 31
0.0
  0
LINE
  5
E4
100
AcDbEntity
100
AcDbLine
  8
2
 62
256
370
-1
  6
BYLAYER
 10
60.104076400856535
 20
60.10407640085657
 30
0.0
 11
133.27880406351932
 21
29.355755609386676
 31
0.0
  0
LINE
  5
E5
100
AcDbEntity
100
AcDbLine
  8
2
 62
256
370
-1
  6
BYLAYER
 10
133.27880406351929
 20
-29.35575560938662
 30
0.0
 11
60.104076400856542
 21
-60.104076400856513
 31
0.0
  0
LINE
  5
E6
100
AcDbEntity
100
AcDbLine
  8
2
 62
256
370
-1
  6
BYLAYER
 10
60.104076400856542
 20
-60.104076400856513
 30
0.0
 11
29.355755609386655
 21
-133.27880406351926
 31
0.0
  0
LINE
  5
E7
100
AcDbEntity
100
AcDbLine
  8
2
 62
256
370
-1
  6
BYLAYER
 10
-29.355755609386676
 20
-133.27880406351932
 30
0.0
 11
-60.104076400856542
 21
-60.104076400856506
 31
0.0
  0
LINE
  5
E8
100
AcDbEntity
100
AcDbLine
  8
2
 62
256
370
-1
  6
BYLAYER
 10
-60.104076400856542
 20
-60.104076400856506
 30
0.0
 11
-133.27880406351923
 21
-29.355755609386541
 31
0.0
  0
LINE
  5
E9
100
AcDbEntity
100
AcDbLine
  8
2
 62
256
370
-1
  6
BYLAYER
 10
-133.27880406351929
 20
29.355755609386652
 30
0.0
 11
-60.104076400856535
 21
60.104076400856542
 31
0.0
  0
LINE
  5
EA
100
AcDbEntity
100
AcDbLine
  8
2
 62
256
370
-1
  6
BYLAYER
 10
-60.104076400856535
 20
60.104076400856542
 30
0.0
 11
-29.355755609386648
 21
133.27880406351929
 31
0.0
  0
ARC
  5
EB
100
AcDbEntity
  8
2
 62
256
370
-1
  6
BYLAYER
100
AcDbCircle
 10
70.710678118654641
 20
70.710678118654684
 30
0.0
 40
75.000000000000043
100
AcDbArc
 50
326.53695903281562
 51
123.46304096718447
  0
ARC
  5
EC
100
AcDbEntity
  8
2
 62
256
370
-1
  6
BYLAYER
100
AcDbCircle
 10
70.710678118654698
 20
-70.71067811865467
 30
0.0
 40
75.000000000000014
100
AcDbArc
 50
236.53695903281556
 51
33.463040967184448
  0
ARC
  5
ED
100
AcDbEntity
  8
2
 62
256
370
-1
  6
BYLAYER
100
AcDbCircle
 10
-70.710678118654741
 20
-70.71067811865467
 30
0.0
 40
74.999999999999972
100
AcDbArc
 50
146.53695903281547
 51
303.46304096718444
  0
ARC
  5
EE
100
AcDbEntity
  8
2
 62
256
370
-1
  6
BYLAYER
100
AcDbCircle
 10
-70.710678118654712
 20
70.710678118654727
 30
0.0
 40
75.0
100
AcDbArc
 50
56.536959032815524
 51
213.46304096718444
  0
LINE
  5
EF
100
AcDbEntity
100
AcDbLine
  8
0
 62
256
370
-1
  6
BYLAYER
 10
61.871843353822953
 20
72.114484040942216
 30
0.0
 11
69.306872196367351
 21
79.549512883486614
 31
0.0
  0
LINE
  5
F0
100
AcDbEntity
100
AcDbLine
  8
0
 62
256
370
-1
  6
BYLAYER
 10
72.11448404094611
 20
79.549512883486585
 30
0.0
 11
79.549512883486614
 21
72.114484040946081
 31
0.0
  0
LINE
  5
F1
100
AcDbEntity
100
AcDbLine
  8
0
 62
256
370
-1
  6
BYLAYER
 10
72.114484040942187
 20
61.871843353822882
 30
0.0
 11
79.549512883486585
 21
69.30687219636728
 31
0.0
  0
LINE
  5
F2
100
AcDbEntity
100
AcDbLine
  8
0
 62
256
370
-1
  6
BYLAYER
 10
-69.306872196367209
 20
79.549512883486614
 30
0.0
 11
-61.871843353822904
 21
72.114484040942301
 31
0.0
  0
LINE
  5
F3
100
AcDbEntity
100
AcDbLine
  8
0
 62
256
370
-1
  6
BYLAYER
 10
-79.549512883486614
 20
72.114484040942173
 30
0.0
 11
-72.114484040942187
 21
79.549512883486599
 31
0.0
  0
LINE
  5
F4
100
AcDbEntity
100
AcDbLine
  8
0
 62
256
370
-1
  6
BYLAYER
 10
-79.549512883486585
 20
69.306872196363642
 30
0.0
 11
-72.114484040945854
 21
61.871843353822911
 31
0.0
  0
LINE
  5
F5
100
AcDbEntity
100
AcDbLine
  8
0
 62
256
370
-1
  6
BYLAYER
 10
-79.549512883486557
 20
-72.114484040942259
 30
0.0
 11
-72.114484040942273
 21
-79.549512883486557
 31
0.0
  0
LINE
  5
F6
100
AcDbEntity
100
AcDbLine
  8
0
 62
256
370
-1
  6
BYLAYER
 10
72.114484040942202
 20
-79.549512883486557
 30
0.0
 11
79.549512883486585
 21
-72.114484040942173
 31
0.0
  0
LINE
  5
F7
100
AcDbEntity
100
AcDbLine
  8
0
 62
256
370
-1
  6
BYLAYER
 10
61.871843353822896
 20
-72.114484040945854
 30
0.0
 11
69.306872196363614
 21
-79.549512883486585
 31
0.0
  0
LINE
  5
F8
100
AcDbEntity
100
AcDbLine
  8
0
 62
256
370
-1
  6
BYLAYER
 10
72.114484040942273
 20
-61.871843353822896
 30
0.0
 11
79.549512883486614
 21
-69.306872196367294
 31
0.0
  0
LINE
  5
F9
100
AcDbEntity
100
AcDbLine
  8
0
 62
256
370
-1
  6
BYLAYER
 10
-79.549512883486557
 20
-69.306872196367223
 30
0.0
 11
-72.114484040942202
 21
-61.871843353822875
 31
0.0
  0
LINE
  5
FA
100
AcDbEntity
100
AcDbLine
  8
0
 62
256
370
-1
  6
BYLAYER
 10
-69.306872196367323
 20
-79.549512883486557
 30
0.0
 11
-61.871843353822904
 21
-72.114484040942145
 31
0.0
  0
ENDSEC
  0
SECTION
  2
OBJECTS
  0
DICTIONARY
  5
C
100
AcDbDictionary
280
0
281
1
  3
ACAD_GROUP
350
D
  3
ACAD_LAYOUT
350
1A
  3
ACAD_MLINESTYLE
350
17
  3
ACAD_PLOTSETTINGS
350
19
  3
ACAD_PLOTSTYLENAME
350
E
  3
AcDbVariableDictionary
350
FB
  3
QCAD_OBJECTS
350
FC
  0
DICTIONARY
  5
D
100
AcDbDictionary
280
0
281
1
  0
ACDBDICTIONARYWDFLT
  5
E
100
AcDbDictionary
281
1
  3
Normal
350
F
100
AcDbDictionaryWithDefault
340
F
  0
ACDBPLACEHOLDER
  5
F
  0
DICTIONARY
  5
17
100
AcDbDictionary
280
0
281
1
  3
Standard
350
18
  0
MLINESTYLE
  5
18
100
AcDbMlineStyle
  2
STANDARD
 70
0
  3

 62
256
 51
90.0
 52
90.0
 71
2
 49
0.5
 62
256
  6
BYLAYER
 49
-0.5
 62
256
  6
BYLAYER
  0
DICTIONARY
  5
19
100
AcDbDictionary
280
0
281
1
  0
DICTIONARY
  5
1A
100
AcDbDictionary
281
1
  3
Layout1
350
1E
  3
Layout2
350
26
  3
Model
350
22
  0
LAYOUT
  5
1E
100
AcDbPlotSettings
  1

  2
none_device
  4

  6

 40
0.0
 41
0.0
 42
0.0
 43
0.0
 44
0.0
 45
0.0
 46
0.0
 47
0.0
 48
0.0
 49
0.0
140
0.0
141
0.0
142
1.0
143
1.0
 70
688
 72
0
 73
0
 74
5
  7

 75
16
147
1.0
148
0.0
149
0.0
100
AcDbLayout
  1
Layout1
 70
1
 71
1
 10
0.0
 20
0.0
 11
420.0
 21
297.0
 12
0.0
 22
0.0
 32
0.0
 14
100000000000000000000.0
 24
100000000000000000000.0
 34
100000000000000000000.0
 15
-100000000000000000000.0
 25
-100000000000000000000.0
 35
-100000000000000000000.0
146
0.0
 13
0.0
 23
0.0
 33
0.0
 16
1.0
 26
0.0
 36
0.0
 17
0.0
 27
1.0
 37
0.0
 76
0
330
1B
  0
LAYOUT
  5
22
100
AcDbPlotSettings
  1

  2
none_device
  4

  6

 40
0.0
 41
0.0
 42
0.0
 43
0.0
 44
0.0
 45
0.0
 46
0.0
 47
0.0
 48
0.0
 49
0.0
140
0.0
141
0.0
142
1.0
143
1.0
 70
1712
 72
0
 73
0
 74
0
  7

 75
0
147
1.0
148
0.0
149
0.0
100
AcDbLayout
  1
Model
 70
1
 71
0
 10
0.0
 20
0.0
 11
12.0
 21
9.0
 12
0.0
 22
0.0
 32
0.0
 14
0.0
 24
0.0
 34
0.0
 15
0.0
 25
0.0
 35
0.0
146
0.0
 13
0.0
 23
0.0
 33
0.0
 16
1.0
 26
0.0
 36
0.0
 17
0.0
 27
1.0
 37
0.0
 76
0
330
1F
  0
LAYOUT
  5
26
100
AcDbPlotSettings
  1

  2
none_device
  4

  6

 40
0.0
 41
0.0
 42
0.0
 43
0.0
 44
0.0
 45
0.0
 46
0.0
 47
0.0
 48
0.0
 49
0.0
140
0.0
141
0.0
142
1.0
143
1.0
 70
688
 72
0
 73
0
 74
5
  7

 75
16
147
1.0
148
0.0
149
0.0
100
AcDbLayout
  1
Layout2
 70
1
 71
2
 10
0.0
 20
0.0
 11
12.0
 21
9.0
 12
0.0
 22
0.0
 32
0.0
 14
0.0
 24
0.0
 34
0.0
 15
0.0
 25
0.0
 35
0.0
146
0.0
 13
0.0
 23
0.0
 33
0.0
 16
1.0
 26
0.0
 36
0.0
 17
0.0
 27
1.0
 37
0.0
 76
0
330
23
  0
DICTIONARY
  5
FB
100
AcDbDictionary
281
1
  3
DIMASSOC
350
FE
  3
HIDETEXT
350
FD
  0
DICTIONARYVAR
  5
FD
100
DictionaryVariables
280
0
  1
2
  0
DICTIONARYVAR
  5
FE
100
DictionaryVariables
280
0
  1
1
  0
DICTIONARY
  5
FC
100
AcDbDictionary
281
1
  3
Grid/DisplayGrid00
350
FF
  3
Grid/DisplayGrid01
350
100
  3
Grid/DisplayGrid02
350
101
  3
Grid/DisplayGrid03
350
102
  3
Grid/GridSpacingX00
350
103
  3
Grid/GridSpacingX01
350
104
  3
Grid/GridSpacingX02
350
105
  3
Grid/GridSpacingX03
350
106
  3
Grid/GridSpacingY00
350
107
  3
Grid/GridSpacingY01
350
108
  3
Grid/GridSpacingY02
350
109
  3
Grid/GridSpacingY03
350
10A
  3
Grid/IsometricGrid00
350
10B
  3
Grid/IsometricGrid01
350
10C
  3
Grid/IsometricGrid02
350
10D
  3
Grid/IsometricGrid03
350
10E
  3
Grid/IsometricProjection00
350
10F
  3
Grid/IsometricProjection01
350
110
  3
Grid/IsometricProjection02
350
111
  3
Grid/IsometricProjection03
350
112
  3
Grid/MetaGridSpacingX00
350
113
  3
Grid/MetaGridSpacingX01
350
114
  3
Grid/MetaGridSpacingX02
350
115
  3
Grid/MetaGridSpacingX03
350
116
  3
Grid/MetaGridSpacingY00
350
117
  3
Grid/MetaGridSpacingY01
350
118
  3
Grid/MetaGridSpacingY02
350
119
  3
Grid/MetaGridSpacingY03
350
11A
  3
MultiPageSettings/Columns
350
11B
  3
MultiPageSettings/GlueMarginsBottom
350
11C
  3
MultiPageSettings/GlueMarginsLeft
350
11D
  3
MultiPageSettings/GlueMarginsRight
350
11E
  3
MultiPageSettings/GlueMarginsTop
350
11F
  3
MultiPageSettings/PrintCropMarks
350
120
  3
MultiPageSettings/Rows
350
121
  3
PageSettings/OffsetX
350
122
  3
PageSettings/OffsetY
350
123
  3
PageSettings/PageOrientation
350
124
  3
PageSettings/PaperHeight
350
125
  3
PageSettings/PaperWidth
350
126
  3
PageSettings/Scale
350
127
  3
PageSettings/ShowPaperBorders
350
128
  3
UnitSettings/PaperUnit
350
129
  0
XRECORD
  5
FF
330
FC
100
AcDbXrecord
280
1
290
1
  0
XRECORD
  5
100
330
FC
100
AcDbXrecord
280
1
290
1
  0
XRECORD
  5
101
330
FC
100
AcDbXrecord
280
1
290
1
  0
XRECORD
  5
102
330
FC
100
AcDbXrecord
280
1
290
1
  0
XRECORD
  5
103
330
FC
100
AcDbXrecord
280
1
1000
auto
  0
XRECORD
  5
104
330
FC
100
AcDbXrecord
280
1
1000
auto
  0
XRECORD
  5
105
330
FC
100
AcDbXrecord
280
1
1000
auto
  0
XRECORD
  5
106
330
FC
100
AcDbXrecord
280
1
1000
auto
  0
XRECORD
  5
107
330
FC
100
AcDbXrecord
280
1
1000
auto
  0
XRECORD
  5
108
330
FC
100
AcDbXrecord
280
1
1000
auto
  0
XRECORD
  5
109
330
FC
100
AcDbXrecord
280
1
1000
auto
  0
XRECORD
  5
10A
330
FC
100
AcDbXrecord
280
1
1000
auto
  0
XRECORD
  5
10B
330
FC
100
AcDbXrecord
280
1
290
0
  0
XRECORD
  5
10C
330
FC
100
AcDbXrecord
280
1
290
0
  0
XRECORD
  5
10D
330
FC
100
AcDbXrecord
280
1
290
0
  0
XRECORD
  5
10E
330
FC
100
AcDbXrecord
280
1
290
0
  0
XRECORD
  5
10F
330
FC
100
AcDbXrecord
280
1
 90
0
  0
XRECORD
  5
110
330
FC
100
AcDbXrecord
280
1
 90
0
  0
XRECORD
  5
111
330
FC
100
AcDbXrecord
280
1
 90
0
  0
XRECORD
  5
112
330
FC
100
AcDbXrecord
280
1
 90
0
  0
XRECORD
  5
113
330
FC
100
AcDbXrecord
280
1
1000
auto
  0
XRECORD
  5
114
330
FC
100
AcDbXrecord
280
1
1000
auto
  0
XRECORD
  5
115
330
FC
100
AcDbXrecord
280
1
1000
auto
  0
XRECORD
  5
116
330
FC
100
AcDbXrecord
280
1
1000
auto
  0
XRECORD
  5
117
330
FC
100
AcDbXrecord
280
1
1000
auto
  0
XRECORD
  5
118
330
FC
100
AcDbXrecord
280
1
1000
auto
  0
XRECORD
  5
119
330
FC
100
AcDbXrecord
280
1
1000
auto
  0
XRECORD
  5
11A
330
FC
100
AcDbXrecord
280
1
1000
auto
  0
XRECORD
  5
11B
330
FC
100
AcDbXrecord
280
1
 90
1
  0
XRECORD
  5
11C
330
FC
100
AcDbXrecord
280
1
 40
10.0
  0
XRECORD
  5
11D
330
FC
100
AcDbXrecord
280
1
 40
10.0
  0
XRECORD
  5
11E
330
FC
100
AcDbXrecord
280
1
 40
10.0
  0
XRECORD
  5
11F
330
FC
100
AcDbXrecord
280
1
 40
10.0
  0
XRECORD
  5
120
330
FC
100
AcDbXrecord
280
1
290
0
  0
XRECORD
  5
121
330
FC
100
AcDbXrecord
280
1
 90
1
  0
XRECORD
  5
122
330
FC
100
AcDbXrecord
280
1
 40
0.0
  0
XRECORD
  5
123
330
FC
100
AcDbXrecord
280
1
 40
0.0
  0
XRECORD
  5
124
330
FC
100
AcDbXrecord
280
1
1000
Portrait
  0
XRECORD
  5
125
330
FC
100
AcDbXrecord
280
1
 40
594.0
  0
XRECORD
  5
126
330
FC
100
AcDbXrecord
280
1
 40
420.0
  0
XRECORD
  5
127
330
FC
100
AcDbXrecord
280
1
1000
1:1
  0
XRECORD
  5
128
330
FC
100
AcDbXrecord
280
1
290
1
  0
XRECORD
  5
129
330
FC
100
AcDbXrecord
280
1
 90
4
  0
ENDSEC
  0
EOF
